  0
SECTION
  2
HEADER
  9
$ACADVER
  1
AC1015
  9
$ACADMAINTVER
 70
     6
  9
$DWGCODEPAGE
  3
ANSI_1252
  9
$INSBASE
 10
0.0
 20
0.0
 30
0.0
  9
$EXTMIN
 10
1.000000000000000E+20
 20
1.000000000000000E+20
 30
1.000000000000000E+20
  9
$EXTMAX
 10
-1.000000000000000E+20
 20
-1.000000000000000E+20
 30
-1.000000000000000E+20
  9
$LIMMIN
 10
0.0
 20
0.0
  9
$LIMMAX
 10
12.0
 20
9.0
  9
$ORTHOMODE
 70
     0
  9
$REGENMODE
 70
     1
  9
$FILLMODE
 70
     1
  9
$QTEXTMODE
 70
     0
  9
$MIRRTEXT
 70
     1
  9
$LTSCALE
 40
1.0
  9
$ATTMODE
 70
     1
  9
$TEXTSIZE
 40
0.2
  9
$TRACEWID
 40
0.05
  9
$TEXTSTYLE
  7
Standard
  9
$CLAYER
  8
0
  9
$CELTYPE
  6
ByLayer
  9
$CECOLOR
 62
   256
  9
$CELTSCALE
 40
1.0
  9
$DISPSILH
 70
     0
  9
$DIMSCALE
 40
1.0
  9
$DIMASZ
 40
0.18
  9
$DIMEXO
 40
0.0625
  9
$DIMDLI
 40
0.38
  9
$DIMRND
 40
0.0
  9
$DIMDLE
 40
0.0
  9
$DIMEXE
 40
0.18
  9
$DIMTP
 40
0.0
  9
$DIMTM
 40
0.0
  9
$DIMTXT
 40
0.18
  9
$DIMCEN
 40
0.09
  9
$DIMTSZ
 40
0.0
  9
$DIMTOL
 70
     0
  9
$DIMLIM
 70
     0
  9
$DIMTIH
 70
     1
  9
$DIMTOH
 70
     1
  9
$DIMSE1
 70
     0
  9
$DIMSE2
 70
     0
  9
$DIMTAD
 70
     0
  9
$DIMZIN
 70
     0
  9
$DIMBLK
  1

  9
$DIMASO
 70
     1
  9
$DIMSHO
 70
     1
  9
$DIMPOST
  1

  9
$DIMAPOST
  1

  9
$DIMALT
 70
     0
  9
$DIMALTD
 70
     2
  9
$DIMALTF
 40
25.4
  9
$DIMLFAC
 40
1.0
  9
$DIMTOFL
 70
     0
  9
$DIMTVP
 40
0.0
  9
$DIMTIX
 70
     0
  9
$DIMSOXD
 70
     0
  9
$DIMSAH
 70
     0
  9
$DIMBLK1
  1

  9
$DIMBLK2
  1

  9
$DIMSTYLE
  2
Standard
  9
$DIMCLRD
 70
     0
  9
$DIMCLRE
 70
     0
  9
$DIMCLRT
 70
     0
  9
$DIMTFAC
 40
1.0
  9
$DIMGAP
 40
0.09
  9
$DIMJUST
 70
     0
  9
$DIMSD1
 70
     0
  9
$DIMSD2
 70
     0
  9
$DIMTOLJ
 70
     1
  9
$DIMTZIN
 70
     0
  9
$DIMALTZ
 70
     0
  9
$DIMALTTZ
 70
     0
  9
$DIMUPT
 70
     0
  9
$DIMDEC
 70
     4
  9
$DIMTDEC
 70
     4
  9
$DIMALTU
 70
     2
  9
$DIMALTTD
 70
     2
  9
$DIMTXSTY
  7
Standard
  9
$DIMAUNIT
 70
     0
  9
$DIMADEC
 70
     0
  9
$DIMALTRND
 40
0.0
  9
$DIMAZIN
 70
     0
  9
$DIMDSEP
 70
    46
  9
$DIMATFIT
 70
     3
  9
$DIMFRAC
 70
     0
  9
$DIMLDRBLK
  1

  9
$DIMLUNIT
 70
     2
  9
$DIMLWD
 70
    -2
  9
$DIMLWE
 70
    -2
  9
$DIMTMOVE
 70
     0
  9
$LUNITS
 70
     2
  9
$LUPREC
 70
     4
  9
$SKETCHINC
 40
0.1
  9
$FILLETRAD
 40
0.5
  9
$AUNITS
 70
     0
  9
$AUPREC
 70
     0
  9
$MENU
  1
.
  9
$ELEVATION
 40
0.0
  9
$PELEVATION
 40
0.0
  9
$THICKNESS
 40
0.0
  9
$LIMCHECK
 70
     0
  9
$CHAMFERA
 40
0.5
  9
$CHAMFERB
 40
0.5
  9
$CHAMFERC
 40
1.0
  9
$CHAMFERD
 40
0.0
  9
$SKPOLY
 70
     0
  9
$TDCREATE
 40
2458927.411991412
  9
$TDUCREATE
 40
2458926.870324745
  9
$TDUPDATE
 40
2458927.411991539
  9
$TDUUPDATE
 40
2458926.870324873
  9
$TDINDWG
 40
0.0000000116
  9
$TDUSRTIMER
 40
0.0000000116
  9
$USRTIMER
 70
     1
  9
$ANGBASE
 50
0.0
  9
$ANGDIR
 70
     0
  9
$PDMODE
 70
     0
  9
$PDSIZE
 40
0.0
  9
$PLINEWID
 40
0.0
  9
$SPLFRAME
 70
     0
  9
$SPLINETYPE
 70
     6
  9
$SPLINESEGS
 70
     8
  9
$HANDSEED
  5
3C4
  9
$SURFTAB1
 70
     6
  9
$SURFTAB2
 70
     6
  9
$SURFTYPE
 70
     6
  9
$SURFU
 70
     6
  9
$SURFV
 70
     6
  9
$UCSBASE
  2

  9
$UCSNAME
  2

  9
$UCSORG
 10
0.0
 20
0.0
 30
0.0
  9
$UCSXDIR
 10
1.0
 20
0.0
 30
0.0
  9
$UCSYDIR
 10
0.0
 20
1.0
 30
0.0
  9
$UCSORTHOREF
  2

  9
$UCSORTHOVIEW
 70
     0
  9
$UCSORGTOP
 10
0.0
 20
0.0
 30
0.0
  9
$UCSORGBOTTOM
 10
0.0
 20
0.0
 30
0.0
  9
$UCSORGLEFT
 10
0.0
 20
0.0
 30
0.0
  9
$UCSORGRIGHT
 10
0.0
 20
0.0
 30
0.0
  9
$UCSORGFRONT
 10
0.0
 20
0.0
 30
0.0
  9
$UCSORGBACK
 10
0.0
 20
0.0
 30
0.0
  9
$PUCSBASE
  2

  9
$PUCSNAME
  2

  9
$PUCSORG
 10
0.0
 20
0.0
 30
0.0
  9
$PUCSXDIR
 10
1.0
 20
0.0
 30
0.0
  9
$PUCSYDIR
 10
0.0
 20
1.0
 30
0.0
  9
$PUCSORTHOREF
  2

  9
$PUCSORTHOVIEW
 70
     0
  9
$PUCSORGTOP
 10
0.0
 20
0.0
 30
0.0
  9
$PUCSORGBOTTOM
 10
0.0
 20
0.0
 30
0.0
  9
$PUCSORGLEFT
 10
0.0
 20
0.0
 30
0.0
  9
$PUCSORGRIGHT
 10
0.0
 20
0.0
 30
0.0
  9
$PUCSORGFRONT
 10
0.0
 20
0.0
 30
0.0
  9
$PUCSORGBACK
 10
0.0
 20
0.0
 30
0.0
  9
$USERI1
 70
     0
  9
$USERI2
 70
     0
  9
$USERI3
 70
     0
  9
$USERI4
 70
     0
  9
$USERI5
 70
     0
  9
$USERR1
 40
0.0
  9
$USERR2
 40
0.0
  9
$USERR3
 40
0.0
  9
$USERR4
 40
0.0
  9
$USERR5
 40
0.0
  9
$WORLDVIEW
 70
     1
  9
$SHADEDGE
 70
     3
  9
$SHADEDIF
 70
    70
  9
$TILEMODE
 70
     1
  9
$MAXACTVP
 70
    64
  9
$PINSBASE
 10
0.0
 20
0.0
 30
0.0
  9
$PLIMCHECK
 70
     0
  9
$PEXTMIN
 10
1.000000000000000E+20
 20
1.000000000000000E+20
 30
1.000000000000000E+20
  9
$PEXTMAX
 10
-1.000000000000000E+20
 20
-1.000000000000000E+20
 30
-1.000000000000000E+20
  9
$PLIMMIN
 10
0.0
 20
0.0
  9
$PLIMMAX
 10
12.0
 20
9.0
  9
$UNITMODE
 70
     0
  9
$VISRETAIN
 70
     1
  9
$PLINEGEN
 70
     0
  9
$PSLTSCALE
 70
     1
  9
$TREEDEPTH
 70
  3020
  9
$CMLSTYLE
  2
Standard
  9
$CMLJUST
 70
     0
  9
$CMLSCALE
 40
1.0
  9
$PROXYGRAPHICS
 70
     1
  9
$MEASUREMENT
 70
     0
  9
$CELWEIGHT
370
    -1
  9
$ENDCAPS
280
     0
  9
$JOINSTYLE
280
     0
  9
$LWDISPLAY
290
     1
  9
$INSUNITS
 70
     4
  9
$HYPERLINKBASE
  1

  9
$STYLESHEET
  1

  9
$XEDIT
290
     1
  9
$CEPSNTYPE
380
     0
  9
$PSTYLEMODE
290
     1
  9
$FINGERPRINTGUID
  2
{309BA903-08C8-4239-8200-9C6692EF0E63}
  9
$VERSIONGUID
  2
{FAEB1C32-E019-11D5-929B-00C0DF256EC4}
  9
$EXTNAMES
290
     1
  9
$PSVPSCALE
 40
0.0
  9
$OLESTARTUP
290
     0
  0
ENDSEC
  0
SECTION
  2
CLASSES
  0
CLASS
  1
ACDBDICTIONARYWDFLT
  2
AcDbDictionaryWithDefault
  3
ObjectDBX Classes
 90
        0
280
     0
281
     0
  0
CLASS
  1
VISUALSTYLE
  2
AcDbVisualStyle
  3
ObjectDBX Classes
 90
     4095
280
     0
281
     0
  0
CLASS
  1
MATERIAL
  2
AcDbMaterial
  3
ObjectDBX Classes
 90
     1153
280
     0
281
     0
  0
CLASS
  1
SUN
  2
AcDbSun
  3
SCENEOE
 90
     1024
280
     0
281
     0
  0
CLASS
  1
DICTIONARYVAR
  2
AcDbDictionaryVar
  3
ObjectDBX Classes
 90
        0
280
     0
281
     0
  0
CLASS
  1
ACDBPLACEHOLDER
  2
AcDbPlaceHolder
  3
ObjectDBX Classes
 90
        0
280
     0
281
     0
  0
CLASS
  1
LAYOUT
  2
AcDbLayout
  3
ObjectDBX Classes
 90
        0
280
     0
281
     0
  0
ENDSEC
  0
SECTION
  2
TABLES
  0
TABLE
  2
VPORT
  5
8
330
0
100
AcDbSymbolTable
 70
     1
  0
VPORT
  5
29
330
8
100
AcDbSymbolTableRecord
100
AcDbViewportTableRecord
  2
*Active
 70
     0
 10
0.0
 20
0.0
 11
1.0
 21
1.0
 12
0.0
 22
0.0
 13
0.0
 23
0.0
 14
0.5
 24
0.5
 15
0.5
 25
0.5
 16
0.0
 26
0.0
 36
1.0
 17
594.4993281255732
 27
420.5005173373662
 37
0.0
 40
841.0010346747324
 41
1.413789766276573
 42
50.0
 43
0.0
 44
0.0
 50
0.0
 51
0.0
 71
     0
 72
   100
 73
     1
 74
     3
 75
     0
 76
     0
 77
     0
 78
     0
281
     0
 65
     1
110
0.0
120
0.0
130
0.0
111
1.0
121
0.0
131
0.0
112
0.0
122
1.0
132
0.0
 79
     0
146
0.0
  0
ENDTAB
  0
TABLE
  2
LTYPE
  5
5
330
0
100
AcDbSymbolTable
 70
     1
  0
LTYPE
  5
14
330
5
100
AcDbSymbolTableRecord
100
AcDbLinetypeTableRecord
  2
ByBlock
 70
     0
  3

 72
    65
 73
     0
 40
0.0
  0
LTYPE
  5
15
330
5
100
AcDbSymbolTableRecord
100
AcDbLinetypeTableRecord
  2
ByLayer
 70
     0
  3

 72
    65
 73
     0
 40
0.0
  0
LTYPE
  5
16
330
5
100
AcDbSymbolTableRecord
100
AcDbLinetypeTableRecord
  2
Continuous
 70
     0
  3
Solid line
 72
    65
 73
     0
 40
0.0
  0
ENDTAB
  0
TABLE
  2
LAYER
  5
2
330
0
100
AcDbSymbolTable
 70
     2
  0
LAYER
  5
10
330
2
100
AcDbSymbolTableRecord
100
AcDbLayerTableRecord
  2
0
 70
     0
 62
     7
  6
Continuous
370
    -3
390
F
  0
LAYER
  5
40
330
2
100
AcDbSymbolTableRecord
100
AcDbLayerTableRecord
  2
Layer 1
 70
     0
 62
     7
  6
Continuous
370
    -3
390
F
  0
ENDTAB
  0
TABLE
  2
STYLE
  5
3
330
0
100
AcDbSymbolTable
 70
     1
  0
STYLE
  5
11
330
3
100
AcDbSymbolTableRecord
100
AcDbTextStyleTableRecord
  2
Standard
 70
     0
 40
0.0
 41
1.0
 50
0.0
 71
     0
 42
0.2
  3
txt
  4

  0
ENDTAB
  0
TABLE
  2
VIEW
  5
6
330
0
100
AcDbSymbolTable
 70
     0
  0
ENDTAB
  0
TABLE
  2
UCS
  5
7
330
0
100
AcDbSymbolTable
 70
     0
  0
ENDTAB
  0
TABLE
  2
APPID
  5
9
330
0
100
AcDbSymbolTable
 70
     1
  0
APPID
  5
12
330
9
100
AcDbSymbolTableRecord
100
AcDbRegAppTableRecord
  2
ACAD
 70
     0
  0
ENDTAB
  0
TABLE
  2
DIMSTYLE
  5
A
330
0
100
AcDbSymbolTable
 70
     1
100
AcDbDimStyleTable
  0
DIMSTYLE
105
27
330
A
100
AcDbSymbolTableRecord
100
AcDbDimStyleTableRecord
  2
Standard
 70
     0
178
     0
340
11
  0
ENDTAB
  0
TABLE
  2
BLOCK_RECORD
  5
1
330
0
100
AcDbSymbolTable
 70
    11
  0
BLOCK_RECORD
  5
1F
330
1
100
AcDbSymbolTableRecord
100
AcDbBlockTableRecord
  2
*Model_Space
340
22
  0
BLOCK_RECORD
  5
1B
330
1
100
AcDbSymbolTableRecord
100
AcDbBlockTableRecord
  2
*Paper_Space
340
1E
  0
BLOCK_RECORD
  5
23
330
1
100
AcDbSymbolTableRecord
100
AcDbBlockTableRecord
  2
*Paper_Space0
340
26
  0
BLOCK_RECORD
  5
41
330
1
100
AcDbSymbolTableRecord
100
AcDbBlockTableRecord
  2
block 2
340
0
102
{BLKREFS
331
42
102
}
  0
BLOCK_RECORD
  5
83
330
1
100
AcDbSymbolTableRecord
100
AcDbBlockTableRecord
  2
block 3
340
0
102
{BLKREFS
331
84
102
}
  0
BLOCK_RECORD
  5
C2
330
1
100
AcDbSymbolTableRecord
100
AcDbBlockTableRecord
  2
block 4
340
0
102
{BLKREFS
331
C3
102
}
  0
BLOCK_RECORD
  5
EB
330
1
100
AcDbSymbolTableRecord
100
AcDbBlockTableRecord
  2
block 5
340
0
102
{BLKREFS
331
EC
102
}
  0
BLOCK_RECORD
  5
108
330
1
100
AcDbSymbolTableRecord
100
AcDbBlockTableRecord
  2
block 6
340
0
102
{BLKREFS
331
109
102
}
  0
BLOCK_RECORD
  5
1C4
330
1
100
AcDbSymbolTableRecord
100
AcDbBlockTableRecord
  2
block 7
340
0
102
{BLKREFS
331
1C5
102
}
  0
BLOCK_RECORD
  5
1D5
330
1
100
AcDbSymbolTableRecord
100
AcDbBlockTableRecord
  2
block 8
340
0
102
{BLKREFS
331
1D6
102
}
  0
BLOCK_RECORD
  5
1E6
330
1
100
AcDbSymbolTableRecord
100
AcDbBlockTableRecord
  2
block 9
340
0
102
{BLKREFS
331
1E7
102
}
  0
BLOCK_RECORD
  5
316
330
1
100
AcDbSymbolTableRecord
100
AcDbBlockTableRecord
  2
block 10
340
0
102
{BLKREFS
331
317
102
}
  0
BLOCK_RECORD
  5
328
330
1
100
AcDbSymbolTableRecord
100
AcDbBlockTableRecord
  2
block 11
340
0
102
{BLKREFS
331
329
102
}
  0
ENDTAB
  0
ENDSEC
  0
SECTION
  2
BLOCKS
  0
BLOCK
  5
20
330
1F
100
AcDbEntity
  8
0
100
AcDbBlockBegin
  2
*Model_Space
 70
     0
 10
0.0
 20
0.0
 30
0.0
  3
*Model_Space
  1

  0
ENDBLK
  5
21
330
1F
100
AcDbEntity
  8
0
100
AcDbBlockEnd
  0
BLOCK
  5
1C
330
1B
100
AcDbEntity
 67
     1
  8
0
100
AcDbBlockBegin
  2
*Paper_Space
 70
     0
 10
0.0
 20
0.0
 30
0.0
  3
*Paper_Space
  1

  0
ENDBLK
  5
1D
330
1B
100
AcDbEntity
 67
     1
  8
0
100
AcDbBlockEnd
  0
BLOCK
  5
24
330
23
100
AcDbEntity
  8
0
100
AcDbBlockBegin
  2
*Paper_Space0
 70
     0
 10
0.0
 20
0.0
 30
0.0
  3
*Paper_Space0
  1

  0
ENDBLK
  5
25
330
23
100
AcDbEntity
  8
0
100
AcDbBlockEnd
  0
BLOCK
  5
43
330
41
100
AcDbEntity
  8
0
100
AcDbBlockBegin
  2
block 2
 70
     0
 10
0.0
 20
0.0
 30
0.0
  3
block 2
  1

  0
SPLINE
  5
45
330
41
100
AcDbEntity
  8
Layer 1
 62
    40
370
    13
100
AcDbSpline
210
0.0
220
0.0
230
1.0
 70
    11
 71
     3
 72
    50
 73
    46
 74
     0
 42
0.0000000001
 43
0.0000000001
 12
1.0
 22
0.0
 32
0.0
 13
1.0
 23
0.0
 33
0.0
 40
0.0
 40
0.0
 40
0.0
 40
0.0
 40
1.0
 40
1.0
 40
1.0
 40
2.0
 40
2.0
 40
2.0
 40
3.0
 40
3.0
 40
3.0
 40
4.0
 40
4.0
 40
4.0
 40
5.0
 40
5.0
 40
5.0
 40
6.0
 40
6.0
 40
6.0
 40
7.0
 40
7.0
 40
7.0
 40
8.0
 40
8.0
 40
8.0
 40
9.0
 40
9.0
 40
9.0
 40
10.0
 40
10.0
 40
10.0
 40
11.0
 40
11.0
 40
11.0
 40
12.0
 40
12.0
 40
12.0
 40
13.0
 40
13.0
 40
13.0
 40
14.0
 40
14.0
 40
14.0
 40
15.0
 40
15.0
 40
15.0
 40
15.0
 10
98.9227444506571
 20
803.5149387175433
 30
0.0
 10
98.9227444506571
 20
806.6510229818603
 30
0.0
 10
97.83707422476817
 20
809.3239158949663
 30
0.0
 10
95.66865531448285
 20
811.5326012685281
 30
0.0
 10
93.4993472393908
 20
813.7403974772831
 30
0.0
 10
90.86767346613253
 20
814.8481062879615
 30
0.0
 10
87.78138243085935
 20
814.8481062879615
 30
0.0
 10
84.70474518488646
 20
814.8481062879615
 30
0.0
 10
82.0808198477792
 20
813.7403974772831
 30
0.0
 10
79.91233742572255
 20
811.5316485919456
 30
0.0
 10
77.74302935063501
 20
809.3201051886671
 30
0.0
 10
76.65926447789538
 20
806.6453069223992
 30
0.0
 10
76.65926447789538
 20
803.5082064697384
 30
0.0
 10
76.65926447789538
 20
800.3692641757125
 30
0.0
 10
77.74201316228536
 20
797.7011346454741
 30
0.0
 10
79.91233742572255
 20
795.5029922260302
 30
0.0
 10
82.07891449462734
 20
793.3038971299967
 30
0.0
 10
84.70188715515853
 20
792.206731273419
 30
0.0
 10
87.77661904798116
 20
792.206731273419
 30
0.0
 10
90.26151711677976
 20
792.206731273419
 30
0.0
 10
92.45680150650243
 20
792.8819249186445
 30
0.0
 10
94.35669264592777
 20
794.2265326378731
 30
0.0
 10
96.25366224385385
 20
795.5720295218911
 30
0.0
 10
97.54650786911682
 20
797.3817974572357
 30
0.0
 10
98.23510249817501
 20
799.6480244959823
 30
0.0
 10
98.23510249817501
 20
799.6480244959823
 30
0.0
 10
92.85578245649016
 20
799.6480244959823
 30
0.0
 10
92.85578245649016
 20
799.6480244959823
 30
0.0
 10
92.42898335048483
 20
798.8146230273886
 30
0.0
 10
91.77011223059898
 20
798.1452089533964
 30
0.0
 10
90.87338952558842
 20
797.646514521792
 30
0.0
 10
89.9766668205846
 20
797.1458512252751
 30
0.0
 10
88.98982091149406
 20
796.8984093626349
 30
0.0
 10
87.9099302568301
 20
796.8984093626349
 30
0.0
 10
86.16926312912425
 20
796.8984093626349
 30
0.0
 10
84.71433546241578
 20
797.5275569733519
 30
0.0
 10
83.54717963339785
 20
798.791568254254
 30
0.0
 10
82.87103331160108
 20
799.5300831358828
 30
0.0
 10
82.38675605218064
 20
800.3596738981703
 30
0.0
 10
82.09809504969044
 20
801.2765298348133
 30
0.0
 10
82.09809504969044
 20
801.2765298348133
 30
0.0
 10
98.73570228292385
 20
801.2765298348133
 30
0.0
 10
98.73570228292385
 20
801.2765298348133
 30
0.0
 10
98.8603758908215
 20
802.0082489568724
 30
0.0
 10
98.9227444506571
 20
802.7563541160437
 30
0.0
 10
98.9227444506571
 20
803.5149387175433
 30
0.0
  0
SPLINE
  5
46
330
41
100
AcDbEntity
  8
Layer 1
 62
    40
370
    13
100
AcDbSpline
210
0.0
220
0.0
230
1.0
 70
    11
 71
     3
 72
    20
 73
    16
 74
     0
 42
0.0000000001
 43
0.0000000001
 12
1.0
 22
0.0
 32
0.0
 13
1.0
 23
0.0
 33
0.0
 40
0.0
 40
0.0
 40
0.0
 40
0.0
 40
1.0
 40
1.0
 40
1.0
 40
2.0
 40
2.0
 40
2.0
 40
3.0
 40
3.0
 40
3.0
 40
4.0
 40
4.0
 40
4.0
 40
5.0
 40
5.0
 40
5.0
 40
5.0
 10
81.94941399207828
 20
805.340012989881
 30
0.0
 10
82.23616964142111
 20
806.4381315230274
 30
0.0
 10
82.7521392749223
 20
807.4077657419739
 30
0.0
 10
83.49446486286287
 20
808.2488521349511
 30
0.0
 10
84.64917238462579
 20
809.5205483402342
 30
0.0
 10
86.0791399250459
 20
810.155412010412
 30
0.0
 10
87.78811467866457
 20
810.155412010412
 30
0.0
 10
89.4942949143205
 20
810.155412010412
 30
0.0
 10
90.92616780789504
 20
809.5205483402342
 30
0.0
 10
92.0808753296493
 20
808.2488521349511
 30
0.0
 10
92.84905020868237
 20
807.4202140492395
 30
0.0
 10
93.35739842958223
 20
806.4515325068688
 30
0.0
 10
93.60769832195972
 20
805.340012989881
 30
0.0
 10
93.60769832195972
 20
805.340012989881
 30
0.0
 10
81.94941399207828
 20
805.340012989881
 30
0.0
 10
81.94941399207828
 20
805.340012989881
 30
0.0
  0
POLYLINE
  5
47
330
41
100
AcDbEntity
  8
Layer 1
 62
    40
370
    13
100
AcDb2dPolyline
 66
     1
 10
0.0
 20
0.0
 30
0.0
  0
VERTEX
  5
48
330
47
100
AcDbEntity
  8
Layer 1
 62
    40
370
    13
100
AcDbVertex
100
AcDb2dVertex
 10
120.5551975337298
 20
814.1594576340824
 30
0.0
  0
VERTEX
  5
49
330
47
100
AcDbEntity
  8
Layer 1
 62
    40
370
    13
100
AcDbVertex
100
AcDb2dVertex
 10
114.6099872395155
 20
814.1594576340824
 30
0.0
  0
VERTEX
  5
4A
330
47
100
AcDbEntity
  8
Layer 1
 62
    40
370
    13
100
AcDbVertex
100
AcDb2dVertex
 10
107.7633223248048
 20
804.0145883096317
 30
0.0
  0
VERTEX
  5
4B
330
47
100
AcDbEntity
  8
Layer 1
 62
    40
370
    13
100
AcDbVertex
100
AcDb2dVertex
 10
107.7565906831558
 20
804.0145883096317
 30
0.0
  0
VERTEX
  5
4C
330
47
100
AcDbEntity
  8
Layer 1
 62
    40
370
    13
100
AcDbVertex
100
AcDb2dVertex
 10
107.7565906831558
 20
821.2871539535381
 30
0.0
  0
VERTEX
  5
4D
330
47
100
AcDbEntity
  8
Layer 1
 62
    40
370
    13
100
AcDbVertex
100
AcDb2dVertex
 10
102.6275480365828
 20
821.2871539535381
 30
0.0
  0
VERTEX
  5
4E
330
47
100
AcDbEntity
  8
Layer 1
 62
    40
370
    13
100
AcDbVertex
100
AcDb2dVertex
 10
102.6275480365828
 20
792.893396802363
 30
0.0
  0
VERTEX
  5
4F
330
47
100
AcDbEntity
  8
Layer 1
 62
    40
370
    13
100
AcDbVertex
100
AcDb2dVertex
 10
107.7565906831558
 20
792.893396802363
 30
0.0
  0
VERTEX
  5
50
330
47
100
AcDbEntity
  8
Layer 1
 62
    40
370
    13
100
AcDbVertex
100
AcDb2dVertex
 10
107.7565906831558
 20
802.9941555815229
 30
0.0
  0
VERTEX
  5
51
330
47
100
AcDbEntity
  8
Layer 1
 62
    40
370
    13
100
AcDbVertex
100
AcDb2dVertex
 10
115.3474824839075
 20
792.893396802363
 30
0.0
  0
VERTEX
  5
52
330
47
100
AcDbEntity
  8
Layer 1
 62
    40
370
    13
100
AcDbVertex
100
AcDb2dVertex
 10
121.4902518264425
 20
792.893396802363
 30
0.0
  0
VERTEX
  5
53
330
47
100
AcDbEntity
  8
Layer 1
 62
    40
370
    13
100
AcDbVertex
100
AcDb2dVertex
 10
112.6218700492173
 20
803.8812798540249
 30
0.0
  0
VERTEX
  5
54
330
47
100
AcDbEntity
  8
Layer 1
 62
    40
370
    13
100
AcDbVertex
100
AcDb2dVertex
 10
120.5551975337298
 20
814.1594576340824
 30
0.0
  0
SEQEND
  5
55
330
47
100
AcDbEntity
  8
Layer 1
 62
    40
370
    13
  0
SPLINE
  5
56
330
41
100
AcDbEntity
  8
Layer 1
 62
    40
370
    13
100
AcDbSpline
210
0.0
220
0.0
230
1.0
 70
    11
 71
     3
 72
    17
 73
    13
 74
     0
 42
0.0000000001
 43
0.0000000001
 12
1.0
 22
0.0
 32
0.0
 13
1.0
 23
0.0
 33
0.0
 40
0.0
 40
0.0
 40
0.0
 40
0.0
 40
1.0
 40
1.0
 40
1.0
 40
2.0
 40
2.0
 40
2.0
 40
3.0
 40
3.0
 40
3.0
 40
4.0
 40
4.0
 40
4.0
 40
4.0
 10
124.2648305343213
 20
821.7033763927963
 30
0.0
 10
123.0573447302604
 20
821.7033763927963
 30
0.0
 10
122.0494129129569
 20
820.7500646991798
 30
0.0
 10
122.0494129129569
 20
819.487006094864
 30
0.0
 10
122.0494129129569
 20
818.2229948139623
 30
0.0
 10
123.0573447302604
 20
817.2696831203458
 30
0.0
 10
124.2648305343213
 20
817.2696831203458
 30
0.0
 10
125.4674259319614
 20
817.2696831203458
 30
0.0
 10
126.4831061854069
 20
818.2229948139623
 30
0.0
 10
126.4831061854069
 20
819.487006094864
 30
0.0
 10
126.4831061854069
 20
820.7500646991798
 30
0.0
 10
125.4674259319614
 20
821.7033763927963
 30
0.0
 10
124.2648305343213
 20
821.7033763927963
 30
0.0
  0
SPLINE
  5
57
330
41
100
AcDbEntity
  8
Layer 1
 62
    40
370
    13
100
AcDbSpline
210
0.0
220
0.0
230
1.0
 70
    11
 71
     3
 72
    17
 73
    13
 74
     0
 42
0.0000000001
 43
0.0000000001
 12
1.0
 22
0.0
 32
0.0
 13
1.0
 23
0.0
 33
0.0
 40
0.0
 40
0.0
 40
0.0
 40
0.0
 40
1.0
 40
1.0
 40
1.0
 40
2.0
 40
2.0
 40
2.0
 40
3.0
 40
3.0
 40
3.0
 40
4.0
 40
4.0
 40
4.0
 40
4.0
 10
124.2648305343213
 20
817.5928945266659
 30
0.0
 10
123.2471814159481
 20
817.5928945266659
 30
0.0
 10
122.4425507799435
 20
818.413847687997
 30
0.0
 10
122.4425507799435
 20
819.487006094864
 30
0.0
 10
122.4425507799435
 20
820.5582591485693
 30
0.0
 10
123.2471814159481
 20
821.3821338514099
 30
0.0
 10
124.2648305343213
 20
821.3821338514099
 30
0.0
 10
125.2794945994214
 20
821.3821338514099
 30
0.0
 10
126.0899048066512
 20
820.5582591485693
 30
0.0
 10
126.0899048066512
 20
819.487006094864
 30
0.0
 10
126.0899048066512
 20
818.413847687997
 30
0.0
 10
125.2794945994214
 20
817.5928945266659
 30
0.0
 10
124.2648305343213
 20
817.5928945266659
 30
0.0
  0
SPLINE
  5
58
330
41
100
AcDbEntity
  8
Layer 1
 62
    40
370
    13
100
AcDbSpline
210
0.0
220
0.0
230
1.0
 70
    11
 71
     3
 72
    35
 73
    31
 74
     0
 42
0.0000000001
 43
0.0000000001
 12
1.0
 22
0.0
 32
0.0
 13
1.0
 23
0.0
 33
0.0
 40
0.0
 40
0.0
 40
0.0
 40
0.0
 40
1.0
 40
1.0
 40
1.0
 40
2.0
 40
2.0
 40
2.0
 40
3.0
 40
3.0
 40
3.0
 40
4.0
 40
4.0
 40
4.0
 40
5.0
 40
5.0
 40
5.0
 40
6.0
 40
6.0
 40
6.0
 40
7.0
 40
7.0
 40
7.0
 40
8.0
 40
8.0
 40
8.0
 40
9.0
 40
9.0
 40
9.0
 40
10.0
 40
10.0
 40
10.0
 40
10.0
 10
124.6177019380321
 20
819.337435872449
 30
0.0
 10
125.0042345807581
 20
819.377702335721
 30
0.0
 10
125.3043912139404
 20
819.5742712692129
 30
0.0
 10
125.3043912139404
 20
820.0480690862998
 30
0.0
 10
125.3043912139404
 20
820.5410474584326
 30
0.0
 10
125.0099506402159
 20
820.7846151030017
 30
0.0
 10
124.39623639002
 20
820.7846151030017
 30
0.0
 10
124.39623639002
 20
820.7846151030017
 30
0.0
 10
123.4198699232677
 20
820.7846151030017
 30
0.0
 10
123.4198699232677
 20
820.7846151030017
 30
0.0
 10
123.4198699232677
 20
820.7846151030017
 30
0.0
 10
123.4198699232677
 20
818.1923186282221
 30
0.0
 10
123.4198699232677
 20
818.1923186282221
 30
0.0
 10
123.4198699232677
 20
818.1923186282221
 30
0.0
 10
123.8140239786037
 20
818.1923186282221
 30
0.0
 10
123.8140239786037
 20
818.1923186282221
 30
0.0
 10
123.8140239786037
 20
818.1923186282221
 30
0.0
 10
123.8140239786037
 20
819.3086650398566
 30
0.0
 10
123.8140239786037
 20
819.3086650398566
 30
0.0
 10
123.8140239786037
 20
819.3086650398566
 30
0.0
 10
124.2350435133776
 20
819.3086650398566
 30
0.0
 10
124.2350435133776
 20
819.3086650398566
 30
0.0
 10
124.2350435133776
 20
819.3086650398566
 30
0.0
 10
124.9399606677726
 20
818.1923186282221
 30
0.0
 10
124.9399606677726
 20
818.1923186282221
 30
0.0
 10
124.9399606677726
 20
818.1923186282221
 30
0.0
 10
125.3619328791223
 20
818.1923186282221
 30
0.0
 10
125.3619328791223
 20
818.1923186282221
 30
0.0
 10
125.3619328791223
 20
818.1923186282221
 30
0.0
 10
124.6177019380321
 20
819.337435872449
 30
0.0
 10
124.6177019380321
 20
819.337435872449
 30
0.0
  0
SPLINE
  5
59
330
41
100
AcDbEntity
  8
Layer 1
 62
    40
370
    13
100
AcDbSpline
210
0.0
220
0.0
230
1.0
 70
    11
 71
     3
 72
    20
 73
    16
 74
     0
 42
0.0000000001
 43
0.0000000001
 12
1.0
 22
0.0
 32
0.0
 13
1.0
 23
0.0
 33
0.0
 40
0.0
 40
0.0
 40
0.0
 40
0.0
 40
1.0
 40
1.0
 40
1.0
 40
2.0
 40
2.0
 40
2.0
 40
3.0
 40
3.0
 40
3.0
 40
4.0
 40
4.0
 40
4.0
 40
5.0
 40
5.0
 40
5.0
 40
5.0
 10
124.2177683114709
 20
819.6280022280953
 30
0.0
 10
124.2177683114709
 20
819.6280022280953
 30
0.0
 10
123.8140239786037
 20
819.6280022280953
 30
0.0
 10
123.8140239786037
 20
819.6280022280953
 30
0.0
 10
123.8140239786037
 20
819.6280022280953
 30
0.0
 10
123.8140239786037
 20
820.4633725616153
 30
0.0
 10
123.8140239786037
 20
820.4633725616153
 30
0.0
 10
123.8140239786037
 20
820.4633725616153
 30
0.0
 10
124.3299936121135
 20
820.4633725616153
 30
0.0
 10
124.3299936121135
 20
820.4633725616153
 30
0.0
 10
124.5995375713209
 20
820.4633725616153
 30
0.0
 10
124.9111898351783
 20
820.4201845568339
 30
0.0
 10
124.9111898351783
 20
820.0653442881979
 30
0.0
 10
124.9111898351783
 20
819.6490881363067
 30
0.0
 10
124.5697505503773
 20
819.6280022280953
 30
0.0
 10
124.2177683114709
 20
819.6280022280953
 30
0.0
  0
POLYLINE
  5
5A
330
41
100
AcDbEntity
  8
Layer 1
 62
    40
370
    13
100
AcDb2dPolyline
 66
     1
 10
0.0
 20
0.0
 30
0.0
  0
VERTEX
  5
5B
330
5A
100
AcDbEntity
  8
Layer 1
 62
    40
370
    13
100
AcDbVertex
100
AcDb2dVertex
 10
36.37613581532992
 20
799.7381666136143
 30
0.0
  0
VERTEX
  5
5C
330
5A
100
AcDbEntity
  8
Layer 1
 62
    40
370
    13
100
AcDbVertex
100
AcDb2dVertex
 10
28.83505816276721
 20
821.2871539535381
 30
0.0
  0
VERTEX
  5
5D
330
5A
100
AcDbEntity
  8
Layer 1
 62
    40
370
    13
100
AcDbVertex
100
AcDb2dVertex
 10
21.49926631241421
 20
821.2871539535381
 30
0.0
  0
VERTEX
  5
5E
330
5A
100
AcDbEntity
  8
Layer 1
 62
    40
370
    13
100
AcDbVertex
100
AcDb2dVertex
 10
21.49926631241421
 20
792.893396802363
 30
0.0
  0
VERTEX
  5
5F
330
5A
100
AcDbEntity
  8
Layer 1
 62
    40
370
    13
100
AcDbVertex
100
AcDb2dVertex
 10
26.75299066949033
 20
792.893396802363
 30
0.0
  0
VERTEX
  5
60
330
5A
100
AcDbEntity
  8
Layer 1
 62
    40
370
    13
100
AcDbVertex
100
AcDb2dVertex
 10
26.75299066949033
 20
814.347438727074
 30
0.0
  0
VERTEX
  5
61
330
5A
100
AcDbEntity
  8
Layer 1
 62
    40
370
    13
100
AcDbVertex
100
AcDb2dVertex
 10
34.26140522606264
 20
792.893396802363
 30
0.0
  0
VERTEX
  5
62
330
5A
100
AcDbEntity
  8
Layer 1
 62
    40
370
    13
100
AcDbVertex
100
AcDb2dVertex
 10
38.4620666855558
 20
792.893396802363
 30
0.0
  0
VERTEX
  5
63
330
5A
100
AcDbEntity
  8
Layer 1
 62
    40
370
    13
100
AcDbVertex
100
AcDb2dVertex
 10
45.95133996544975
 20
814.4184063274303
 30
0.0
  0
VERTEX
  5
64
330
5A
100
AcDbEntity
  8
Layer 1
 62
    40
370
    13
100
AcDbVertex
100
AcDb2dVertex
 10
45.95133996544975
 20
792.893396802363
 30
0.0
  0
VERTEX
  5
65
330
5A
100
AcDbEntity
  8
Layer 1
 62
    40
370
    13
100
AcDbVertex
100
AcDb2dVertex
 10
51.20500578650751
 20
792.893396802363
 30
0.0
  0
VERTEX
  5
66
330
5A
100
AcDbEntity
  8
Layer 1
 62
    40
370
    13
100
AcDbVertex
100
AcDb2dVertex
 10
51.20500578650751
 20
821.2871539535381
 30
0.0
  0
VERTEX
  5
67
330
5A
100
AcDbEntity
  8
Layer 1
 62
    40
370
    13
100
AcDbVertex
100
AcDb2dVertex
 10
43.87015051238459
 20
821.2871539535381
 30
0.0
  0
VERTEX
  5
68
330
5A
100
AcDbEntity
  8
Layer 1
 62
    40
370
    13
100
AcDbVertex
100
AcDb2dVertex
 10
36.37613581532992
 20
799.7381666136143
 30
0.0
  0
SEQEND
  5
69
330
5A
100
AcDbEntity
  8
Layer 1
 62
    40
370
    13
  0
POLYLINE
  5
6A
330
41
100
AcDbEntity
  8
Layer 1
 62
    40
370
    13
100
AcDb2dPolyline
 66
     1
 10
0.0
 20
0.0
 30
0.0
  0
VERTEX
  5
6B
330
6A
100
AcDbEntity
  8
Layer 1
 62
    40
370
    13
100
AcDbVertex
100
AcDb2dVertex
 10
55.69624002107607
 20
816.5992972468831
 30
0.0
  0
VERTEX
  5
6C
330
6A
100
AcDbEntity
  8
Layer 1
 62
    40
370
    13
100
AcDbVertex
100
AcDb2dVertex
 10
60.82335097917477
 20
816.5992972468831
 30
0.0
  0
VERTEX
  5
6D
330
6A
100
AcDbEntity
  8
Layer 1
 62
    40
370
    13
100
AcDbVertex
100
AcDb2dVertex
 10
60.82335097917477
 20
821.2871539535381
 30
0.0
  0
VERTEX
  5
6E
330
6A
100
AcDbEntity
  8
Layer 1
 62
    40
370
    13
100
AcDbVertex
100
AcDb2dVertex
 10
55.69624002107607
 20
821.2871539535381
 30
0.0
  0
VERTEX
  5
6F
330
6A
100
AcDbEntity
  8
Layer 1
 62
    40
370
    13
100
AcDbVertex
100
AcDb2dVertex
 10
55.69624002107607
 20
816.5992972468831
 30
0.0
  0
SEQEND
  5
70
330
6A
100
AcDbEntity
  8
Layer 1
 62
    40
370
    13
  0
POLYLINE
  5
71
330
41
100
AcDbEntity
  8
Layer 1
 62
    40
370
    13
100
AcDb2dPolyline
 66
     1
 10
0.0
 20
0.0
 30
0.0
  0
VERTEX
  5
72
330
71
100
AcDbEntity
  8
Layer 1
 62
    40
370
    13
100
AcDbVertex
100
AcDb2dVertex
 10
55.69624002107607
 20
792.893396802363
 30
0.0
  0
VERTEX
  5
73
330
71
100
AcDbEntity
  8
Layer 1
 62
    40
370
    13
100
AcDbVertex
100
AcDb2dVertex
 10
60.82335097917477
 20
792.893396802363
 30
0.0
  0
VERTEX
  5
74
330
71
100
AcDbEntity
  8
Layer 1
 62
    40
370
    13
100
AcDbVertex
100
AcDb2dVertex
 10
60.82335097917477
 20
814.1594576340824
 30
0.0
  0
VERTEX
  5
75
330
71
100
AcDbEntity
  8
Layer 1
 62
    40
370
    13
100
AcDbVertex
100
AcDb2dVertex
 10
55.69624002107607
 20
814.1594576340824
 30
0.0
  0
VERTEX
  5
76
330
71
100
AcDbEntity
  8
Layer 1
 62
    40
370
    13
100
AcDbVertex
100
AcDb2dVertex
 10
55.69624002107607
 20
792.893396802363
 30
0.0
  0
SEQEND
  5
77
330
71
100
AcDbEntity
  8
Layer 1
 62
    40
370
    13
  0
POLYLINE
  5
78
330
41
100
AcDbEntity
  8
Layer 1
 62
    40
370
    13
100
AcDb2dPolyline
 66
     1
 10
0.0
 20
0.0
 30
0.0
  0
VERTEX
  5
79
330
78
100
AcDbEntity
  8
Layer 1
 62
    40
370
    13
100
AcDbVertex
100
AcDb2dVertex
 10
78.93609135359242
 20
821.2871539535381
 30
0.0
  0
VERTEX
  5
7A
330
78
100
AcDbEntity
  8
Layer 1
 62
    40
370
    13
100
AcDbVertex
100
AcDb2dVertex
 10
63.05123168412419
 20
821.2871539535381
 30
0.0
  0
VERTEX
  5
7B
330
78
100
AcDbEntity
  8
Layer 1
 62
    40
370
    13
100
AcDbVertex
100
AcDb2dVertex
 10
63.05123168412419
 20
816.4093990994296
 30
0.0
  0
VERTEX
  5
7C
330
78
100
AcDbEntity
  8
Layer 1
 62
    40
370
    13
100
AcDbVertex
100
AcDb2dVertex
 10
68.36536520796788
 20
816.4093990994296
 30
0.0
  0
VERTEX
  5
7D
330
78
100
AcDbEntity
  8
Layer 1
 62
    40
370
    13
100
AcDbVertex
100
AcDb2dVertex
 10
68.36536520796788
 20
792.893396802363
 30
0.0
  0
VERTEX
  5
7E
330
78
100
AcDbEntity
  8
Layer 1
 62
    40
370
    13
100
AcDbVertex
100
AcDb2dVertex
 10
73.61908956504656
 20
792.893396802363
 30
0.0
  0
VERTEX
  5
7F
330
78
100
AcDbEntity
  8
Layer 1
 62
    40
370
    13
100
AcDbVertex
100
AcDb2dVertex
 10
73.61908956504656
 20
816.4093990994296
 30
0.0
  0
VERTEX
  5
80
330
78
100
AcDbEntity
  8
Layer 1
 62
    40
370
    13
100
AcDbVertex
100
AcDb2dVertex
 10
78.93609135359242
 20
816.4093990994296
 30
0.0
  0
VERTEX
  5
81
330
78
100
AcDbEntity
  8
Layer 1
 62
    40
370
    13
100
AcDbVertex
100
AcDb2dVertex
 10
78.93609135359242
 20
821.2871539535381
 30
0.0
  0
SEQEND
  5
82
330
78
100
AcDbEntity
  8
Layer 1
 62
    40
370
    13
  0
ENDBLK
  5
44
330
41
100
AcDbEntity
  8
0
100
AcDbBlockEnd
  0
BLOCK
  5
85
330
83
100
AcDbEntity
  8
0
100
AcDbBlockBegin
  2
block 3
 70
     0
 10
0.0
 20
0.0
 30
0.0
  3
block 3
  1

  0
SPLINE
  5
87
330
83
100
AcDbEntity
  8
Layer 1
 62
    40
370
    13
100
AcDbSpline
210
0.0
220
0.0
230
1.0
 70
    11
 71
     3
 72
    26
 73
    22
 74
     0
 42
0.0000000001
 43
0.0000000001
 12
1.0
 22
0.0
 32
0.0
 13
1.0
 23
0.0
 33
0.0
 40
0.0
 40
0.0
 40
0.0
 40
0.0
 40
1.0
 40
1.0
 40
1.0
 40
2.0
 40
2.0
 40
2.0
 40
3.0
 40
3.0
 40
3.0
 40
4.0
 40
4.0
 40
4.0
 40
5.0
 40
5.0
 40
5.0
 40
6.0
 40
6.0
 40
6.0
 40
7.0
 40
7.0
 40
7.0
 40
7.0
 10
32.93718208453717
 20
781.4177087040829
 30
0.0
 10
38.55646670458726
 20
781.4177087040829
 30
0.0
 10
41.80646877183318
 20
778.2477720472377
 30
0.0
 10
41.80646877183318
 20
773.3915598079848
 30
0.0
 10
41.80646877183318
 20
770.2216231511433
 30
0.0
 10
39.71986613740567
 20
768.2134519391518
 30
0.0
 10
38.2754207741828
 20
767.491229257539
 30
0.0
 10
40.04176176699183
 20
766.6889411655252
 30
0.0
 10
42.24764552304641
 20
764.8833844614979
 30
0.0
 10
42.24764552304641
 20
761.0712905334444
 30
0.0
 10
42.24764552304641
 20
755.7314178558302
 30
0.0
 10
38.55646670458726
 20
752.8425271293818
 30
0.0
 10
33.45842424615093
 20
752.8425271293818
 30
0.0
 10
33.45842424615093
 20
752.8425271293818
 30
0.0
 10
21.49926631241421
 20
752.8425271293818
 30
0.0
 10
21.49926631241421
 20
752.8425271293818
 30
0.0
 10
21.49926631241421
 20
752.8425271293818
 30
0.0
 10
21.49926631241421
 20
781.4177087040829
 30
0.0
 10
21.49926631241421
 20
781.4177087040829
 30
0.0
 10
21.49926631241421
 20
781.4177087040829
 30
0.0
 10
32.93718208453717
 20
781.4177087040829
 30
0.0
 10
32.93718208453717
 20
781.4177087040829
 30
0.0
  0
SPLINE
  5
88
330
83
100
AcDbEntity
  8
Layer 1
 62
    40
370
    13
100
AcDbSpline
210
0.0
220
0.0
230
1.0
 70
    11
 71
     3
 72
    20
 73
    16
 74
     0
 42
0.0000000001
 43
0.0000000001
 12
1.0
 22
0.0
 32
0.0
 13
1.0
 23
0.0
 33
0.0
 40
0.0
 40
0.0
 40
0.0
 40
0.0
 40
1.0
 40
1.0
 40
1.0
 40
2.0
 40
2.0
 40
2.0
 40
3.0
 40
3.0
 40
3.0
 40
4.0
 40
4.0
 40
4.0
 40
5.0
 40
5.0
 40
5.0
 40
5.0
 10
27.07770123327362
 20
776.4422153432108
 30
0.0
 10
27.07770123327362
 20
776.4422153432108
 30
0.0
 10
27.07770123327362
 20
769.8196621111521
 30
0.0
 10
27.07770123327362
 20
769.8196621111521
 30
0.0
 10
27.07770123327362
 20
769.8196621111521
 30
0.0
 10
32.57607074373249
 20
769.8196621111521
 30
0.0
 10
32.57607074373249
 20
769.8196621111521
 30
0.0
 10
34.94371930855999
 20
769.8196621111521
 30
0.0
 10
36.22803385097378
 20
771.1431923647834
 30
0.0
 10
36.22803385097378
 20
773.151363576771
 30
0.0
 10
36.22803385097378
 20
775.1170511016109
 30
0.0
 10
34.94371930855999
 20
776.4422153432108
 30
0.0
 10
32.57607074373249
 20
776.4422153432108
 30
0.0
 10
32.57607074373249
 20
776.4422153432108
 30
0.0
 10
27.07770123327362
 20
776.4422153432108
 30
0.0
 10
27.07770123327362
 20
776.4422153432108
 30
0.0
  0
SPLINE
  5
89
330
83
100
AcDbEntity
  8
Layer 1
 62
    40
370
    13
100
AcDbSpline
210
0.0
220
0.0
230
1.0
 70
    11
 71
     3
 72
    20
 73
    16
 74
     0
 42
0.0000000001
 43
0.0000000001
 12
1.0
 22
0.0
 32
0.0
 13
1.0
 23
0.0
 33
0.0
 40
0.0
 40
0.0
 40
0.0
 40
0.0
 40
1.0
 40
1.0
 40
1.0
 40
2.0
 40
2.0
 40
2.0
 40
3.0
 40
3.0
 40
3.0
 40
4.0
 40
4.0
 40
4.0
 40
5.0
 40
5.0
 40
5.0
 40
5.0
 10
27.07770123327362
 20
764.8425347623114
 30
0.0
 10
27.07770123327362
 20
764.8425347623114
 30
0.0
 10
27.07770123327362
 20
757.8196544782228
 30
0.0
 10
27.07770123327362
 20
757.8196544782228
 30
0.0
 10
27.07770123327362
 20
757.8196544782228
 30
0.0
 10
32.93718208453717
 20
757.8196544782228
 30
0.0
 10
32.93718208453717
 20
757.8196544782228
 30
0.0
 10
35.42574575895556
 20
757.8196544782228
 30
0.0
 10
36.66921060218668
 20
759.345799239818
 30
0.0
 10
36.66921060218668
 20
761.3523364638444
 30
0.0
 10
36.66921060218668
 20
763.3163900007158
 30
0.0
 10
35.42574575895556
 20
764.8425347623114
 30
0.0
 10
32.93718208453717
 20
764.8425347623114
 30
0.0
 10
32.93718208453717
 20
764.8425347623114
 30
0.0
 10
27.07770123327362
 20
764.8425347623114
 30
0.0
 10
27.07770123327362
 20
764.8425347623114
 30
0.0
  0
SPLINE
  5
8A
330
83
100
AcDbEntity
  8
Layer 1
 62
    40
370
    13
100
AcDbSpline
210
0.0
220
0.0
230
1.0
 70
    11
 71
     3
 72
    29
 73
    25
 74
     0
 42
0.0000000001
 43
0.0000000001
 12
1.0
 22
0.0
 32
0.0
 13
1.0
 23
0.0
 33
0.0
 40
0.0
 40
0.0
 40
0.0
 40
0.0
 40
1.0
 40
1.0
 40
1.0
 40
2.0
 40
2.0
 40
2.0
 40
3.0
 40
3.0
 40
3.0
 40
4.0
 40
4.0
 40
4.0
 40
5.0
 40
5.0
 40
5.0
 40
6.0
 40
6.0
 40
6.0
 40
7.0
 40
7.0
 40
7.0
 40
8.0
 40
8.0
 40
8.0
 40
8.0
 10
64.97968612615728
 20
778.6497330872328
 30
0.0
 10
67.82936114138418
 20
775.8392737832202
 30
0.0
 10
67.86857685260686
 20
772.5892717159743
 30
0.0
 10
67.86857685260686
 20
767.1301179167342
 30
0.0
 10
67.86857685260686
 20
761.6725981054664
 30
0.0
 10
67.82936114138418
 20
758.4209620502412
 30
0.0
 10
64.97968612615728
 20
755.6105027462393
 30
0.0
 10
63.01236461334847
 20
753.6856649205862
 30
0.0
 10
60.60386634933509
 20
752.6006969101996
 30
0.0
 10
57.31301458289848
 20
752.6006969101996
 30
0.0
 10
54.02216281646572
 20
752.6006969101996
 30
0.0
 10
51.61366455244787
 20
753.6856649205862
 30
0.0
 10
49.64797702760707
 20
755.6105027462393
 30
0.0
 10
46.79830201238465
 20
758.4601777614662
 30
0.0
 10
46.75745231319781
 20
761.6725981054664
 30
0.0
 10
46.75745231319781
 20
767.1301179167342
 30
0.0
 10
46.75745231319781
 20
772.5892717159743
 30
0.0
 10
46.79830201238465
 20
775.8000580720023
 30
0.0
 10
49.64797702760707
 20
778.6497330872328
 30
0.0
 10
51.61366455244787
 20
780.5762049008513
 30
0.0
 10
54.02216281646572
 20
781.6595389232652
 30
0.0
 10
57.31301458289848
 20
781.6595389232652
 30
0.0
 10
60.60386634933509
 20
781.6595389232652
 30
0.0
 10
63.01236461334847
 20
780.5762049008513
 30
0.0
 10
64.97968612615728
 20
778.6497330872328
 30
0.0
  0
SPLINE
  5
8B
330
83
100
AcDbEntity
  8
Layer 1
 62
    40
370
    13
100
AcDbSpline
210
0.0
220
0.0
230
1.0
 70
    11
 71
     3
 72
    29
 73
    25
 74
     0
 42
0.0000000001
 43
0.0000000001
 12
1.0
 22
0.0
 32
0.0
 13
1.0
 23
0.0
 33
0.0
 40
0.0
 40
0.0
 40
0.0
 40
0.0
 40
1.0
 40
1.0
 40
1.0
 40
2.0
 40
2.0
 40
2.0
 40
3.0
 40
3.0
 40
3.0
 40
4.0
 40
4.0
 40
4.0
 40
5.0
 40
5.0
 40
5.0
 40
6.0
 40
6.0
 40
6.0
 40
7.0
 40
7.0
 40
7.0
 40
8.0
 40
8.0
 40
8.0
 40
8.0
 10
53.74111688606158
 20
775.1579008007942
 30
0.0
 10
52.65778286364755
 20
773.9536516687887
 30
0.0
 10
52.3358872340617
 20
772.5892717159743
 30
0.0
 10
52.3358872340617
 20
767.1301179167342
 30
0.0
 10
52.3358872340617
 20
761.6725981054664
 30
0.0
 10
52.65778286364755
 20
760.3490678518313
 30
0.0
 10
53.74111688606158
 20
759.143184731854
 30
0.0
 10
54.5434049780798
 20
758.221615518214
 30
0.0
 10
55.78850380927059
 20
757.5778242590407
 30
0.0
 10
57.31301458289848
 20
757.5778242590407
 30
0.0
 10
58.83915934449342
 20
757.5778242590407
 30
0.0
 10
60.0826241877207
 20
758.221615518214
 30
0.0
 10
60.88491227973475
 20
759.143184731854
 30
0.0
 10
61.96824630215294
 20
760.3490678518313
 30
0.0
 10
62.29014193173719
 20
761.6725981054664
 30
0.0
 10
62.29014193173719
 20
767.1301179167342
 30
0.0
 10
62.29014193173719
 20
772.5892717159743
 30
0.0
 10
61.96824630215294
 20
773.9536516687887
 30
0.0
 10
60.88491227973475
 20
775.1579008007942
 30
0.0
 10
60.0826241877207
 20
776.0811040024058
 30
0.0
 10
58.83915934449342
 20
776.6824115744247
 30
0.0
 10
57.31301458289848
 20
776.6824115744247
 30
0.0
 10
55.78850380927059
 20
776.6824115744247
 30
0.0
 10
54.5434049780798
 20
776.0811040024058
 30
0.0
 10
53.74111688606158
 20
775.1579008007942
 30
0.0
  0
POLYLINE
  5
8C
330
83
100
AcDbEntity
  8
Layer 1
 62
    40
370
    13
100
AcDb2dPolyline
 66
     1
 10
0.0
 20
0.0
 30
0.0
  0
VERTEX
  5
8D
330
8C
100
AcDbEntity
  8
Layer 1
 62
    40
370
    13
100
AcDbVertex
100
AcDb2dVertex
 10
97.70356315020437
 20
752.8425271293818
 30
0.0
  0
VERTEX
  5
8E
330
8C
100
AcDbEntity
  8
Layer 1
 62
    40
370
    13
100
AcDbVertex
100
AcDb2dVertex
 10
93.00748173176372
 20
752.8425271293818
 30
0.0
  0
VERTEX
  5
8F
330
8C
100
AcDbEntity
  8
Layer 1
 62
    40
370
    13
100
AcDbVertex
100
AcDb2dVertex
 10
87.74930845252247
 20
770.1399237527702
 30
0.0
  0
VERTEX
  5
90
330
8C
100
AcDbEntity
  8
Layer 1
 62
    40
370
    13
100
AcDbVertex
100
AcDb2dVertex
 10
82.53198487246775
 20
752.8425271293818
 30
0.0
  0
VERTEX
  5
91
330
8C
100
AcDbEntity
  8
Layer 1
 62
    40
370
    13
100
AcDbVertex
100
AcDb2dVertex
 10
77.87675315321296
 20
752.8425271293818
 30
0.0
  0
VERTEX
  5
92
330
8C
100
AcDbEntity
  8
Layer 1
 62
    40
370
    13
100
AcDbVertex
100
AcDb2dVertex
 10
70.21008160995417
 20
781.4177087040829
 30
0.0
  0
VERTEX
  5
93
330
8C
100
AcDbEntity
  8
Layer 1
 62
    40
370
    13
100
AcDbVertex
100
AcDb2dVertex
 10
76.03034674999729
 20
781.4177087040829
 30
0.0
  0
VERTEX
  5
94
330
8C
100
AcDbEntity
  8
Layer 1
 62
    40
370
    13
100
AcDbVertex
100
AcDb2dVertex
 10
80.44538223804055
 20
763.4373051103067
 30
0.0
  0
VERTEX
  5
95
330
8C
100
AcDbEntity
  8
Layer 1
 62
    40
370
    13
100
AcDbVertex
100
AcDb2dVertex
 10
85.70192152931153
 20
781.4177087040829
 30
0.0
  0
VERTEX
  5
96
330
8C
100
AcDbEntity
  8
Layer 1
 62
    40
370
    13
100
AcDbVertex
100
AcDb2dVertex
 10
89.83591108695032
 20
781.4177087040829
 30
0.0
  0
VERTEX
  5
97
330
8C
100
AcDbEntity
  8
Layer 1
 62
    40
370
    13
100
AcDbVertex
100
AcDb2dVertex
 10
95.09408436619573
 20
763.4373051103067
 30
0.0
  0
VERTEX
  5
98
330
8C
100
AcDbEntity
  8
Layer 1
 62
    40
370
    13
100
AcDbVertex
100
AcDb2dVertex
 10
99.50911985423609
 20
781.4177087040829
 30
0.0
  0
VERTEX
  5
99
330
8C
100
AcDbEntity
  8
Layer 1
 62
    40
370
    13
100
AcDbVertex
100
AcDb2dVertex
 10
105.3293849942773
 20
781.4177087040829
 30
0.0
  0
VERTEX
  5
9A
330
8C
100
AcDbEntity
  8
Layer 1
 62
    40
370
    13
100
AcDbVertex
100
AcDb2dVertex
 10
97.70356315020437
 20
752.8425271293818
 30
0.0
  0
SEQEND
  5
9B
330
8C
100
AcDbEntity
  8
Layer 1
 62
    40
370
    13
  0
POLYLINE
  5
9C
330
83
100
AcDbEntity
  8
Layer 1
 62
    40
370
    13
100
AcDb2dPolyline
 66
     1
 10
0.0
 20
0.0
 30
0.0
  0
VERTEX
  5
9D
330
9C
100
AcDbEntity
  8
Layer 1
 62
    40
370
    13
100
AcDbVertex
100
AcDb2dVertex
 10
134.80652792701
 20
752.8425271293818
 30
0.0
  0
VERTEX
  5
9E
330
9C
100
AcDbEntity
  8
Layer 1
 62
    40
370
    13
100
AcDbVertex
100
AcDb2dVertex
 10
129.2280930061506
 20
752.8425271293818
 30
0.0
  0
VERTEX
  5
9F
330
9C
100
AcDbEntity
  8
Layer 1
 62
    40
370
    13
100
AcDbVertex
100
AcDb2dVertex
 10
129.2280930061506
 20
769.4585507703474
 30
0.0
  0
VERTEX
  5
A0
330
9C
100
AcDbEntity
  8
Layer 1
 62
    40
370
    13
100
AcDbVertex
100
AcDb2dVertex
 10
123.7705731948776
 20
759.3033155526703
 30
0.0
  0
VERTEX
  5
A1
330
9C
100
AcDbEntity
  8
Layer 1
 62
    40
370
    13
100
AcDbVertex
100
AcDb2dVertex
 10
119.9976949780457
 20
759.3033155526703
 30
0.0
  0
VERTEX
  5
A2
330
9C
100
AcDbEntity
  8
Layer 1
 62
    40
370
    13
100
AcDbVertex
100
AcDb2dVertex
 10
114.4993254675865
 20
769.4585507703474
 30
0.0
  0
VERTEX
  5
A3
330
9C
100
AcDbEntity
  8
Layer 1
 62
    40
370
    13
100
AcDbVertex
100
AcDb2dVertex
 10
114.4993254675865
 20
752.8425271293818
 30
0.0
  0
VERTEX
  5
A4
330
9C
100
AcDbEntity
  8
Layer 1
 62
    40
370
    13
100
AcDbVertex
100
AcDb2dVertex
 10
108.920890546723
 20
752.8425271293818
 30
0.0
  0
VERTEX
  5
A5
330
9C
100
AcDbEntity
  8
Layer 1
 62
    40
370
    13
100
AcDbVertex
100
AcDb2dVertex
 10
108.920890546723
 20
781.4177087040829
 30
0.0
  0
VERTEX
  5
A6
330
9C
100
AcDbEntity
  8
Layer 1
 62
    40
370
    13
100
AcDbVertex
100
AcDb2dVertex
 10
114.4192600571818
 20
781.4177087040829
 30
0.0
  0
VERTEX
  5
A7
330
9C
100
AcDbEntity
  8
Layer 1
 62
    40
370
    13
100
AcDbVertex
100
AcDb2dVertex
 10
121.8833170924777
 20
766.6088757551205
 30
0.0
  0
VERTEX
  5
A8
330
9C
100
AcDbEntity
  8
Layer 1
 62
    40
370
    13
100
AcDbVertex
100
AcDb2dVertex
 10
129.308158416555
 20
781.4177087040829
 30
0.0
  0
VERTEX
  5
A9
330
9C
100
AcDbEntity
  8
Layer 1
 62
    40
370
    13
100
AcDbVertex
100
AcDb2dVertex
 10
134.80652792701
 20
781.4177087040829
 30
0.0
  0
VERTEX
  5
AA
330
9C
100
AcDbEntity
  8
Layer 1
 62
    40
370
    13
100
AcDbVertex
100
AcDb2dVertex
 10
134.80652792701
 20
752.8425271293818
 30
0.0
  0
SEQEND
  5
AB
330
9C
100
AcDbEntity
  8
Layer 1
 62
    40
370
    13
  0
POLYLINE
  5
AC
330
83
100
AcDbEntity
  8
Layer 1
 62
    40
370
    13
100
AcDb2dPolyline
 66
     1
 10
0.0
 20
0.0
 30
0.0
  0
VERTEX
  5
AD
330
AC
100
AcDbEntity
  8
Layer 1
 62
    40
370
    13
100
AcDbVertex
100
AcDb2dVertex
 10
163.5614481781308
 20
752.8425271293818
 30
0.0
  0
VERTEX
  5
AE
330
AC
100
AcDbEntity
  8
Layer 1
 62
    40
370
    13
100
AcDbVertex
100
AcDb2dVertex
 10
157.7019673268672
 20
752.8425271293818
 30
0.0
  0
VERTEX
  5
AF
330
AC
100
AcDbEntity
  8
Layer 1
 62
    40
370
    13
100
AcDbVertex
100
AcDb2dVertex
 10
156.0156917444632
 20
757.8980859006658
 30
0.0
  0
VERTEX
  5
B0
330
AC
100
AcDbEntity
  8
Layer 1
 62
    40
370
    13
100
AcDbVertex
100
AcDb2dVertex
 10
145.9029402139396
 20
757.8980859006658
 30
0.0
  0
VERTEX
  5
B1
330
AC
100
AcDbEntity
  8
Layer 1
 62
    40
370
    13
100
AcDbVertex
100
AcDb2dVertex
 10
144.1758149323449
 20
752.8425271293818
 30
0.0
  0
VERTEX
  5
B2
330
AC
100
AcDbEntity
  8
Layer 1
 62
    40
370
    13
100
AcDbVertex
100
AcDb2dVertex
 10
138.316334081083
 20
752.8425271293818
 30
0.0
  0
VERTEX
  5
B3
330
AC
100
AcDbEntity
  8
Layer 1
 62
    40
370
    13
100
AcDbVertex
100
AcDb2dVertex
 10
148.7509812411988
 20
781.4177087040829
 30
0.0
  0
VERTEX
  5
B4
330
AC
100
AcDbEntity
  8
Layer 1
 62
    40
370
    13
100
AcDbVertex
100
AcDb2dVertex
 10
153.1268010180172
 20
781.4177087040829
 30
0.0
  0
VERTEX
  5
B5
330
AC
100
AcDbEntity
  8
Layer 1
 62
    40
370
    13
100
AcDbVertex
100
AcDb2dVertex
 10
163.5614481781308
 20
752.8425271293818
 30
0.0
  0
SEQEND
  5
B6
330
AC
100
AcDbEntity
  8
Layer 1
 62
    40
370
    13
  0
POLYLINE
  5
B7
330
83
100
AcDbEntity
  8
Layer 1
 62
    40
370
    13
100
AcDb2dPolyline
 66
     1
 10
0.0
 20
0.0
 30
0.0
  0
VERTEX
  5
B8
330
B7
100
AcDbEntity
  8
Layer 1
 62
    40
370
    13
100
AcDbVertex
100
AcDb2dVertex
 10
147.4274509875627
 20
762.5941673191027
 30
0.0
  0
VERTEX
  5
B9
330
B7
100
AcDbEntity
  8
Layer 1
 62
    40
370
    13
100
AcDbVertex
100
AcDb2dVertex
 10
154.4503312716495
 20
762.5941673191027
 30
0.0
  0
VERTEX
  5
BA
330
B7
100
AcDbEntity
  8
Layer 1
 62
    40
370
    13
100
AcDbVertex
100
AcDb2dVertex
 10
150.9584989852176
 20
772.950383056779
 30
0.0
  0
VERTEX
  5
BB
330
B7
100
AcDbEntity
  8
Layer 1
 62
    40
370
    13
100
AcDbVertex
100
AcDb2dVertex
 10
147.4274509875627
 20
762.5941673191027
 30
0.0
  0
SEQEND
  5
BC
330
B7
100
AcDbEntity
  8
Layer 1
 62
    40
370
    13
  0
SPLINE
  5
BD
330
83
100
AcDbEntity
  8
Layer 1
 62
    40
370
    13
100
AcDbSpline
210
0.0
220
0.0
230
1.0
 70
    11
 71
     3
 72
    47
 73
    43
 74
     0
 42
0.0000000001
 43
0.0000000001
 12
1.0
 22
0.0
 32
0.0
 13
1.0
 23
0.0
 33
0.0
 40
0.0
 40
0.0
 40
0.0
 40
0.0
 40
1.0
 40
1.0
 40
1.0
 40
2.0
 40
2.0
 40
2.0
 40
3.0
 40
3.0
 40
3.0
 40
4.0
 40
4.0
 40
4.0
 40
5.0
 40
5.0
 40
5.0
 40
6.0
 40
6.0
 40
6.0
 40
7.0
 40
7.0
 40
7.0
 40
8.0
 40
8.0
 40
8.0
 40
9.0
 40
9.0
 40
9.0
 40
10.0
 40
10.0
 40
10.0
 40
11.0
 40
11.0
 40
11.0
 40
12.0
 40
12.0
 40
12.0
 40
13.0
 40
13.0
 40
13.0
 40
14.0
 40
14.0
 40
14.0
 40
14.0
 10
186.7330315444872
 20
772.6284874271925
 30
0.0
 10
186.7330315444872
 20
772.6284874271925
 30
0.0
 10
181.0745312132231
 20
772.6284874271925
 30
0.0
 10
181.0745312132231
 20
772.6284874271925
 30
0.0
 10
180.512439352419
 20
774.9569202808018
 30
0.0
 10
179.0271442900099
 20
776.6824115744247
 30
0.0
 10
176.2575346851874
 20
776.6824115744247
 30
0.0
 10
174.7330239115601
 20
776.6824115744247
 30
0.0
 10
173.4879250803645
 20
776.1203197136241
 30
0.0
 10
172.6856369883466
 20
775.1971165120156
 30
0.0
 10
171.6415186771508
 20
773.9928673800065
 30
0.0
 10
171.2804073363464
 20
772.5892717159743
 30
0.0
 10
171.2804073363464
 20
767.1301179167342
 30
0.0
 10
171.2804073363464
 20
761.6725981054664
 30
0.0
 10
171.6415186771508
 20
760.267368453462
 30
0.0
 10
172.6856369883466
 20
759.064753309418
 30
0.0
 10
173.4879250803645
 20
758.1399161198409
 30
0.0
 10
174.7330239115601
 20
757.5778242590407
 30
0.0
 10
176.2575346851874
 20
757.5778242590407
 30
0.0
 10
179.0271442900099
 20
757.5778242590407
 30
0.0
 10
180.512439352419
 20
759.3033155526703
 30
0.0
 10
181.0745312132231
 20
761.6333823942447
 30
0.0
 10
181.0745312132231
 20
761.6333823942447
 30
0.0
 10
186.7330315444872
 20
761.6333823942447
 30
0.0
 10
186.7330315444872
 20
761.6333823942447
 30
0.0
 10
185.7297629324737
 20
755.6529864333909
 30
0.0
 10
181.5957733748372
 20
752.6006969101996
 30
0.0
 10
176.2575346851874
 20
752.6006969101996
 30
0.0
 10
172.9666829187511
 20
752.6006969101996
 30
0.0
 10
170.5581846547371
 20
753.6856649205862
 30
0.0
 10
168.5924971298963
 20
755.6105027462393
 30
0.0
 10
165.7428221146732
 20
758.4601777614662
 30
0.0
 10
165.701972415487
 20
761.6725981054664
 30
0.0
 10
165.701972415487
 20
767.1301179167342
 30
0.0
 10
165.701972415487
 20
772.5892717159743
 30
0.0
 10
165.7428221146732
 20
775.8000580720023
 30
0.0
 10
168.5924971298963
 20
778.6497330872328
 30
0.0
 10
170.5581846547371
 20
780.5762049008513
 30
0.0
 10
172.9666829187511
 20
781.6595389232652
 30
0.0
 10
176.2575346851874
 20
781.6595389232652
 30
0.0
 10
181.5957733748372
 20
781.6595389232652
 30
0.0
 10
185.7297629324737
 20
778.6088833880463
 30
0.0
 10
186.7330315444872
 20
772.6284874271925
 30
0.0
  0
SPLINE
  5
BE
330
83
100
AcDbEntity
  8
Layer 1
 62
    40
370
    13
100
AcDbSpline
210
0.0
220
0.0
230
1.0
 70
    11
 71
     3
 72
    17
 73
    13
 74
     0
 42
0.0000000001
 43
0.0000000001
 12
1.0
 22
0.0
 32
0.0
 13
1.0
 23
0.0
 33
0.0
 40
0.0
 40
0.0
 40
0.0
 40
0.0
 40
1.0
 40
1.0
 40
1.0
 40
2.0
 40
2.0
 40
2.0
 40
3.0
 40
3.0
 40
3.0
 40
4.0
 40
4.0
 40
4.0
 40
4.0
 10
188.9439371540986
 20
779.7264262141342
 30
0.0
 10
188.9439371540986
 20
780.9601349686644
 30
0.0
 10
189.9154836106307
 20
781.959097258646
 30
0.0
 10
191.1139331750788
 20
781.959097258646
 30
0.0
 10
192.3123827395262
 20
781.959097258646
 30
0.0
 10
193.2839291960628
 20
780.9601349686644
 30
0.0
 10
193.2839291960628
 20
779.7264262141342
 30
0.0
 10
193.2839291960628
 20
778.4933623674807
 30
0.0
 10
192.3123827395262
 20
777.4944000774849
 30
0.0
 10
191.1139331750788
 20
777.4944000774849
 30
0.0
 10
189.9154836106307
 20
777.4944000774849
 30
0.0
 10
188.9439371540986
 20
778.4933623674807
 30
0.0
 10
188.9439371540986
 20
779.7264262141342
 30
0.0
  0
SPLINE
  5
BF
330
83
100
AcDbEntity
  8
Layer 1
 62
    40
370
    13
100
AcDbSpline
210
0.0
220
0.0
230
1.0
 70
    11
 71
     3
 72
    17
 73
    13
 74
     0
 42
0.0000000001
 43
0.0000000001
 12
1.0
 22
0.0
 32
0.0
 13
1.0
 23
0.0
 33
0.0
 40
0.0
 40
0.0
 40
0.0
 40
0.0
 40
1.0
 40
1.0
 40
1.0
 40
2.0
 40
2.0
 40
2.0
 40
3.0
 40
3.0
 40
3.0
 40
4.0
 40
4.0
 40
4.0
 40
4.0
 10
192.7686961720188
 20
779.7264262141342
 30
0.0
 10
192.7686961720188
 20
780.7195843333039
 30
0.0
 10
192.0491249900187
 20
781.4592936597186
 30
0.0
 10
191.1139331750788
 20
781.4592936597186
 30
0.0
 10
190.1787413601424
 20
781.4592936597186
 30
0.0
 10
189.4591701781464
 20
780.7195843333039
 30
0.0
 10
189.4591701781464
 20
779.7264262141342
 30
0.0
 10
189.4591701781464
 20
778.7339130028375
 30
0.0
 10
190.1787413601424
 20
777.9935587685568
 30
0.0
 10
191.1139331750788
 20
777.9935587685568
 30
0.0
 10
192.0491249900187
 20
777.9935587685568
 30
0.0
 10
192.7686961720188
 20
778.7339130028375
 30
0.0
 10
192.7686961720188
 20
779.7264262141342
 30
0.0
  0
SPLINE
  5
C0
330
83
100
AcDbEntity
  8
Layer 1
 62
    40
370
    13
100
AcDbSpline
210
0.0
220
0.0
230
1.0
 70
    11
 71
     3
 72
    35
 73
    31
 74
     0
 42
0.0000000001
 43
0.0000000001
 12
1.0
 22
0.0
 32
0.0
 13
1.0
 23
0.0
 33
0.0
 40
0.0
 40
0.0
 40
0.0
 40
0.0
 40
1.0
 40
1.0
 40
1.0
 40
2.0
 40
2.0
 40
2.0
 40
3.0
 40
3.0
 40
3.0
 40
4.0
 40
4.0
 40
4.0
 40
5.0
 40
5.0
 40
5.0
 40
6.0
 40
6.0
 40
6.0
 40
7.0
 40
7.0
 40
7.0
 40
8.0
 40
8.0
 40
8.0
 40
9.0
 40
9.0
 40
9.0
 40
10.0
 40
10.0
 40
10.0
 40
10.0
 10
190.3229063182083
 20
780.9169261413895
 30
0.0
 10
190.3229063182083
 20
780.9169261413895
 30
0.0
 10
191.263112566467
 20
780.9169261413895
 30
0.0
 10
191.263112566467
 20
780.9169261413895
 30
0.0
 10
191.7307084739349
 20
780.9169261413895
 30
0.0
 10
192.0303208650512
 20
780.5654513524718
 30
0.0
 10
192.0303208650512
 20
780.1707677362828
 30
0.0
 10
192.0303208650512
 20
779.8437994463943
 30
0.0
 10
191.8272363154257
 20
779.63420438878
 30
0.0
 10
191.6053476408365
 20
779.5413376555596
 30
0.0
 10
191.6053476408365
 20
779.5413376555596
 30
0.0
 10
192.0904940649373
 20
778.542375365578
 30
0.0
 10
192.0904940649373
 20
778.542375365578
 30
0.0
 10
192.0904940649373
 20
778.542375365578
 30
0.0
 10
191.5038053660234
 20
778.542375365578
 30
0.0
 10
191.5038053660234
 20
778.542375365578
 30
0.0
 10
191.5038053660234
 20
778.542375365578
 30
0.0
 10
191.0838465751396
 20
779.4613690797413
 30
0.0
 10
191.0838465751396
 20
779.4613690797413
 30
0.0
 10
191.0838465751396
 20
779.4613690797413
 30
0.0
 10
190.8381393422564
 20
779.4613690797413
 30
0.0
 10
190.8381393422564
 20
779.4613690797413
 30
0.0
 10
190.8381393422564
 20
779.4613690797413
 30
0.0
 10
190.8381393422564
 20
778.542375365578
 30
0.0
 10
190.8381393422564
 20
778.542375365578
 30
0.0
 10
190.8381393422564
 20
778.542375365578
 30
0.0
 10
190.3229063182083
 20
778.542375365578
 30
0.0
 10
190.3229063182083
 20
778.542375365578
 30
0.0
 10
190.3229063182083
 20
778.542375365578
 30
0.0
 10
190.3229063182083
 20
780.9169261413895
 30
0.0
 10
190.3229063182083
 20
780.9169261413895
 30
0.0
  0
SPLINE
  5
C1
330
83
100
AcDbEntity
  8
Layer 1
 62
    40
370
    13
100
AcDbSpline
210
0.0
220
0.0
230
1.0
 70
    11
 71
     3
 72
    20
 73
    16
 74
     0
 42
0.0000000001
 43
0.0000000001
 12
1.0
 22
0.0
 32
0.0
 13
1.0
 23
0.0
 33
0.0
 40
0.0
 40
0.0
 40
0.0
 40
0.0
 40
1.0
 40
1.0
 40
1.0
 40
2.0
 40
2.0
 40
2.0
 40
3.0
 40
3.0
 40
3.0
 40
4.0
 40
4.0
 40
4.0
 40
5.0
 40
5.0
 40
5.0
 40
5.0
 10
191.1979249332585
 20
779.8625017746224
 30
0.0
 10
191.3897270079002
 20
779.8625017746224
 30
0.0
 10
191.5150878410034
 20
780.0043815059221
 30
0.0
 10
191.5150878410034
 20
780.1707677362828
 30
0.0
 10
191.5150878410034
 20
780.3371539666332
 30
0.0
 10
191.3897270079002
 20
780.4790336979438
 30
0.0
 10
191.1979249332585
 20
780.4790336979438
 30
0.0
 10
191.1979249332585
 20
780.4790336979438
 30
0.0
 10
190.8381393422564
 20
780.4790336979438
 30
0.0
 10
190.8381393422564
 20
780.4790336979438
 30
0.0
 10
190.8381393422564
 20
780.4790336979438
 30
0.0
 10
190.8381393422564
 20
779.8625017746224
 30
0.0
 10
190.8381393422564
 20
779.8625017746224
 30
0.0
 10
190.8381393422564
 20
779.8625017746224
 30
0.0
 10
191.1979249332585
 20
779.8625017746224
 30
0.0
 10
191.1979249332585
 20
779.8625017746224
 30
0.0
  0
ENDBLK
  5
86
330
83
100
AcDbEntity
  8
0
100
AcDbBlockEnd
  0
BLOCK
  5
C4
330
C2
100
AcDbEntity
  8
0
100
AcDbBlockBegin
  2
block 4
 70
     0
 10
0.0
 20
0.0
 30
0.0
  3
block 4
  1

  0
SPLINE
  5
C6
330
C2
100
AcDbEntity
  8
Layer 1
 62
    40
370
    13
100
AcDbSpline
210
0.0
220
0.0
230
1.0
 70
    11
 71
     3
 72
    65
 73
    61
 74
     0
 42
0.0000000001
 43
0.0000000001
 12
1.0
 22
0.0
 32
0.0
 13
1.0
 23
0.0
 33
0.0
 40
0.0
 40
0.0
 40
0.0
 40
0.0
 40
1.0
 40
1.0
 40
1.0
 40
2.0
 40
2.0
 40
2.0
 40
3.0
 40
3.0
 40
3.0
 40
4.0
 40
4.0
 40
4.0
 40
5.0
 40
5.0
 40
5.0
 40
6.0
 40
6.0
 40
6.0
 40
7.0
 40
7.0
 40
7.0
 40
8.0
 40
8.0
 40
8.0
 40
9.0
 40
9.0
 40
9.0
 40
10.0
 40
10.0
 40
10.0
 40
11.0
 40
11.0
 40
11.0
 40
12.0
 40
12.0
 40
12.0
 40
13.0
 40
13.0
 40
13.0
 40
14.0
 40
14.0
 40
14.0
 40
15.0
 40
15.0
 40
15.0
 40
16.0
 40
16.0
 40
16.0
 40
17.0
 40
17.0
 40
17.0
 40
18.0
 40
18.0
 40
18.0
 40
19.0
 40
19.0
 40
19.0
 40
20.0
 40
20.0
 40
20.0
 40
20.0
 10
34.44845820450313
 20
739.9685355302204
 30
0.0
 10
34.44845820450313
 20
739.9685355302204
 30
0.0
 10
33.06257188006558
 20
738.582649205779
 30
0.0
 10
33.06257188006558
 20
738.582649205779
 30
0.0
 10
31.84704367524057
 20
739.7429261285661
 30
0.0
 10
30.4623084191764
 20
740.3368774104666
 30
0.0
 10
28.369666112006
 20
740.3368774104666
 30
0.0
 10
25.65544688191786
 20
740.3368774104666
 30
0.0
 10
24.10035350623729
 20
738.8381863852035
 30
0.0
 10
24.10035350623729
 20
736.5751859584167
 30
0.0
 10
24.10035350623729
 20
735.5852671552489
 30
0.0
 10
24.38351632667927
 20
734.7657064716911
 30
0.0
 10
25.00509324960085
 20
734.2293086085747
 30
0.0
 10
25.62667017252213
 20
733.6929107454656
 30
0.0
 10
26.58781226629896
 20
733.352194506229
 30
0.0
 10
27.63413341988352
 20
733.1841385233699
 30
0.0
 10
27.63413341988352
 20
733.1841385233699
 30
0.0
 10
29.98116183810016
 20
732.8157966431199
 30
0.0
 10
29.98116183810016
 20
732.8157966431199
 30
0.0
 10
31.84704367524057
 20
732.5326338226779
 30
0.0
 10
32.72300670921
 20
732.1942197201951
 30
0.0
 10
33.62774645257358
 20
731.3746590366409
 30
0.0
 10
34.7028443155513
 20
730.4399915155075
 30
0.0
 10
35.32442123847482
 20
729.0840329688365
 30
0.0
 10
35.32442123847482
 20
727.4149838239538
 30
0.0
 10
35.32442123847482
 20
723.8812039103076
 30
0.0
 10
32.58257636736305
 20
721.7033825433323
 30
0.0
 10
28.369666112006
 20
721.7033825433323
 30
0.0
 10
25.37228406147652
 20
721.7033825433323
 30
0.0
 10
23.36482081411288
 20
722.4676919448525
 30
0.0
 10
21.49893897697472
 20
724.362350491386
 30
0.0
 10
21.49893897697472
 20
724.362350491386
 30
0.0
 10
22.94122765182587
 20
725.8034880978619
 30
0.0
 10
22.94122765182587
 20
725.8034880978619
 30
0.0
 10
24.6091257283317
 20
724.1367410897356
 30
0.0
 10
26.16421910401227
 20
723.6256667308863
 30
0.0
 10
28.42606846241959
 20
723.6256667308863
 30
0.0
 10
31.39467380355975
 20
723.6256667308863
 30
0.0
 10
33.20415329028656
 20
724.983927414307
 30
0.0
 10
33.20415329028656
 20
727.3597325419194
 30
0.0
 10
33.20415329028656
 20
728.4325282681486
 30
0.0
 10
32.89336482882481
 20
729.2820167294736
 30
0.0
 10
32.21423448711367
 20
729.8759680113774
 30
0.0
 10
31.59265756419433
 20
730.4399915155075
 30
0.0
 10
31.0274829916844
 20
730.6379752761446
 30
0.0
 10
29.58519431683325
 20
730.8635846777913
 30
0.0
 10
29.58519431683325
 20
730.8635846777913
 30
0.0
 10
27.23816589861629
 20
731.204300917028
 30
0.0
 10
27.23816589861629
 20
731.204300917028
 30
0.0
 10
25.65544688191786
 20
731.4575359596957
 30
0.0
 10
24.46754431811071
 20
731.9386825407742
 30
0.0
 10
23.56280457474746
 20
732.7306175833115
 30
0.0
 10
22.54526013055703
 20
733.6353573266741
 30
0.0
 10
22.00771119906689
 20
734.8785111725164
 30
0.0
 10
22.00771119906689
 20
736.5199346763823
 30
0.0
 10
22.00771119906689
 20
739.9409098891997
 30
0.0
 10
24.46754431811071
 20
742.173982538216
 30
0.0
 10
28.45484517181533
 20
742.173982538216
 30
0.0
 10
31.0274829916844
 20
742.173982538216
 30
0.0
 10
32.72300670921
 20
741.494852196504
 30
0.0
 10
34.44845820450313
 20
739.9685355302204
 30
0.0
  0
SPLINE
  5
C7
330
C2
100
AcDbEntity
  8
Layer 1
 62
    40
370
    13
100
AcDbSpline
210
0.0
220
0.0
230
1.0
 70
    11
 71
     3
 72
    53
 73
    49
 74
     0
 42
0.0000000001
 43
0.0000000001
 12
1.0
 22
0.0
 32
0.0
 13
1.0
 23
0.0
 33
0.0
 40
0.0
 40
0.0
 40
0.0
 40
0.0
 40
1.0
 40
1.0
 40
1.0
 40
2.0
 40
2.0
 40
2.0
 40
3.0
 40
3.0
 40
3.0
 40
4.0
 40
4.0
 40
4.0
 40
5.0
 40
5.0
 40
5.0
 40
6.0
 40
6.0
 40
6.0
 40
7.0
 40
7.0
 40
7.0
 40
8.0
 40
8.0
 40
8.0
 40
9.0
 40
9.0
 40
9.0
 40
10.0
 40
10.0
 40
10.0
 40
11.0
 40
11.0
 40
11.0
 40
12.0
 40
12.0
 40
12.0
 40
13.0
 40
13.0
 40
13.0
 40
14.0
 40
14.0
 40
14.0
 40
15.0
 40
15.0
 40
15.0
 40
16.0
 40
16.0
 40
16.0
 40
16.0
 10
41.83716610863905
 20
735.7832509158828
 30
0.0
 10
41.83716610863905
 20
735.7832509158828
 30
0.0
 10
44.80577144977921
 20
735.7832509158828
 30
0.0
 10
44.80577144977921
 20
735.7832509158828
 30
0.0
 10
44.80577144977921
 20
735.7832509158828
 30
0.0
 10
44.80577144977921
 20
734.2293086085747
 30
0.0
 10
44.80577144977921
 20
734.2293086085747
 30
0.0
 10
44.80577144977921
 20
734.2293086085747
 30
0.0
 10
41.83716610863905
 20
734.2293086085747
 30
0.0
 10
41.83716610863905
 20
734.2293086085747
 30
0.0
 10
41.83716610863905
 20
734.2293086085747
 30
0.0
 10
41.83716610863905
 20
725.6630577560194
 30
0.0
 10
41.83716610863905
 20
725.6630577560194
 30
0.0
 10
41.83716610863905
 20
724.362350491386
 30
0.0
 10
42.43111739054665
 20
723.6256667308863
 30
0.0
 10
43.73182465517488
 20
723.6256667308863
 30
0.0
 10
43.73182465517488
 20
723.6256667308863
 30
0.0
 10
44.80577144977921
 20
723.6256667308863
 30
0.0
 10
44.80577144977921
 20
723.6256667308863
 30
0.0
 10
44.80577144977921
 20
723.6256667308863
 30
0.0
 10
44.80577144977921
 20
721.8737406629484
 30
0.0
 10
44.80577144977921
 20
721.8737406629484
 30
0.0
 10
44.80577144977921
 20
721.8737406629484
 30
0.0
 10
43.36348277492582
 20
721.8737406629484
 30
0.0
 10
43.36348277492582
 20
721.8737406629484
 30
0.0
 10
40.98882871569132
 20
721.8737406629484
 30
0.0
 10
39.80092615188385
 20
723.5427898078318
 30
0.0
 10
39.80092615188385
 20
725.6055043372282
 30
0.0
 10
39.80092615188385
 20
725.6055043372282
 30
0.0
 10
39.80092615188385
 20
734.2293086085747
 30
0.0
 10
39.80092615188385
 20
734.2293086085747
 30
0.0
 10
39.80092615188385
 20
734.2293086085747
 30
0.0
 10
38.04784901557062
 20
734.2293086085747
 30
0.0
 10
38.04784901557062
 20
734.2293086085747
 30
0.0
 10
38.04784901557062
 20
734.2293086085747
 30
0.0
 10
38.04784901557062
 20
735.7832509158828
 30
0.0
 10
38.04784901557062
 20
735.7832509158828
 30
0.0
 10
38.04784901557062
 20
735.7832509158828
 30
0.0
 10
39.80092615188385
 20
735.7832509158828
 30
0.0
 10
39.80092615188385
 20
735.7832509158828
 30
0.0
 10
39.80092615188385
 20
735.7832509158828
 30
0.0
 10
39.80092615188385
 20
740.0537145900249
 30
0.0
 10
39.80092615188385
 20
740.0537145900249
 30
0.0
 10
39.80092615188385
 20
740.0537145900249
 30
0.0
 10
41.83716610863905
 20
740.0537145900249
 30
0.0
 10
41.83716610863905
 20
740.0537145900249
 30
0.0
 10
41.83716610863905
 20
740.0537145900249
 30
0.0
 10
41.83716610863905
 20
735.7832509158828
 30
0.0
 10
41.83716610863905
 20
735.7832509158828
 30
0.0
  0
SPLINE
  5
C8
330
C2
100
AcDbEntity
  8
Layer 1
 62
    40
370
    13
100
AcDbSpline
210
0.0
220
0.0
230
1.0
 70
    11
 71
     3
 72
    35
 73
    31
 74
     0
 42
0.0000000001
 43
0.0000000001
 12
1.0
 22
0.0
 32
0.0
 13
1.0
 23
0.0
 33
0.0
 40
0.0
 40
0.0
 40
0.0
 40
0.0
 40
1.0
 40
1.0
 40
1.0
 40
2.0
 40
2.0
 40
2.0
 40
3.0
 40
3.0
 40
3.0
 40
4.0
 40
4.0
 40
4.0
 40
5.0
 40
5.0
 40
5.0
 40
6.0
 40
6.0
 40
6.0
 40
7.0
 40
7.0
 40
7.0
 40
8.0
 40
8.0
 40
8.0
 40
9.0
 40
9.0
 40
9.0
 40
10.0
 40
10.0
 40
10.0
 40
10.0
 10
58.12593469431117
 20
734.6529017708658
 30
0.0
 10
58.12593469431117
 20
734.6529017708658
 30
0.0
 10
56.62724366904418
 20
733.1265851045823
 30
0.0
 10
56.62724366904418
 20
733.1265851045823
 30
0.0
 10
55.86408533590385
 20
733.8908945060989
 30
0.0
 10
55.29891076339393
 20
734.1441295487698
 30
0.0
 10
54.22496396879183
 20
734.1441295487698
 30
0.0
 10
52.1887240120347
 20
734.1441295487698
 30
0.0
 10
50.8880167474023
 20
732.5326338226779
 30
0.0
 10
50.8880167474023
 20
730.4123658744871
 30
0.0
 10
50.8880167474023
 20
730.4123658744871
 30
0.0
 10
50.8880167474023
 20
721.8737406629484
 30
0.0
 10
50.8880167474023
 20
721.8737406629484
 30
0.0
 10
50.8880167474023
 20
721.8737406629484
 30
0.0
 10
48.85292785902337
 20
721.8737406629484
 30
0.0
 10
48.85292785902337
 20
721.8737406629484
 30
0.0
 10
48.85292785902337
 20
721.8737406629484
 30
0.0
 10
48.85292785902337
 20
735.7832509158828
 30
0.0
 10
48.85292785902337
 20
735.7832509158828
 30
0.0
 10
48.85292785902337
 20
735.7832509158828
 30
0.0
 10
50.8880167474023
 20
735.7832509158828
 30
0.0
 10
50.8880167474023
 20
735.7832509158828
 30
0.0
 10
50.8880167474023
 20
735.7832509158828
 30
0.0
 10
50.8880167474023
 20
734.0865761299822
 30
0.0
 10
50.8880167474023
 20
734.0865761299822
 30
0.0
 10
51.6511750805468
 20
735.2468530527699
 30
0.0
 10
53.17864281520535
 20
735.9536090354957
 30
0.0
 10
54.79013854129727
 20
735.9536090354957
 30
0.0
 10
56.1184714469501
 20
735.9536090354957
 30
0.0
 10
57.13601589114052
 20
735.6428205740365
 30
0.0
 10
58.12593469431117
 20
734.6529017708658
 30
0.0
  0
SPLINE
  5
C9
330
C2
100
AcDbEntity
  8
Layer 1
 62
    40
370
    13
100
AcDbSpline
210
0.0
220
0.0
230
1.0
 70
    11
 71
     3
 72
    44
 73
    40
 74
     0
 42
0.0000000001
 43
0.0000000001
 12
1.0
 22
0.0
 32
0.0
 13
1.0
 23
0.0
 33
0.0
 40
0.0
 40
0.0
 40
0.0
 40
0.0
 40
1.0
 40
1.0
 40
1.0
 40
2.0
 40
2.0
 40
2.0
 40
3.0
 40
3.0
 40
3.0
 40
4.0
 40
4.0
 40
4.0
 40
5.0
 40
5.0
 40
5.0
 40
6.0
 40
6.0
 40
6.0
 40
7.0
 40
7.0
 40
7.0
 40
8.0
 40
8.0
 40
8.0
 40
9.0
 40
9.0
 40
9.0
 40
10.0
 40
10.0
 40
10.0
 40
11.0
 40
11.0
 40
11.0
 40
12.0
 40
12.0
 40
12.0
 40
13.0
 40
13.0
 40
13.0
 40
13.0
 10
71.59113255419167
 20
721.8737406629484
 30
0.0
 10
71.59113255419167
 20
721.8737406629484
 30
0.0
 10
69.5836693068306
 20
721.8737406629484
 30
0.0
 10
69.5836693068306
 20
721.8737406629484
 30
0.0
 10
69.5836693068306
 20
721.8737406629484
 30
0.0
 10
69.5836693068306
 20
723.4276829702527
 30
0.0
 10
69.5836693068306
 20
723.4276829702527
 30
0.0
 10
68.59375050366026
 20
722.297333825236
 30
0.0
 10
67.2090152475961
 20
721.7033825433323
 30
0.0
 10
65.65392187191777
 20
721.7033825433323
 30
0.0
 10
64.15523084664854
 20
721.7033825433323
 30
0.0
 10
62.91092593243197
 20
722.1569034833904
 30
0.0
 10
62.06373960785795
 20
723.0040898079653
 30
0.0
 10
61.07382080468538
 20
723.9663829701155
 30
0.0
 10
60.62145093300263
 20
725.2947158757694
 30
0.0
 10
60.62145093300263
 20
726.9062116018613
 30
0.0
 10
60.62145093300263
 20
726.9062116018613
 30
0.0
 10
60.62145093300263
 20
735.7832509158828
 30
0.0
 10
60.62145093300263
 20
735.7832509158828
 30
0.0
 10
60.62145093300263
 20
735.7832509158828
 30
0.0
 10
62.6565398213838
 20
735.7832509158828
 30
0.0
 10
62.6565398213838
 20
735.7832509158828
 30
0.0
 10
62.6565398213838
 20
735.7832509158828
 30
0.0
 10
62.6565398213838
 20
727.2170000633237
 30
0.0
 10
62.6565398213838
 20
727.2170000633237
 30
0.0
 10
62.6565398213838
 20
724.7583180126533
 30
0.0
 10
63.98602379540969
 20
723.5128620300575
 30
0.0
 10
66.07751503420445
 20
723.5128620300575
 30
0.0
 10
68.17015734137134
 20
723.5128620300575
 30
0.0
 10
69.55604366581306
 20
724.7859436536737
 30
0.0
 10
69.55604366581306
 20
727.2170000633237
 30
0.0
 10
69.55604366581306
 20
727.2170000633237
 30
0.0
 10
69.55604366581306
 20
735.7832509158828
 30
0.0
 10
69.55604366581306
 20
735.7832509158828
 30
0.0
 10
69.55604366581306
 20
735.7832509158828
 30
0.0
 10
71.59113255419167
 20
735.7832509158828
 30
0.0
 10
71.59113255419167
 20
735.7832509158828
 30
0.0
 10
71.59113255419167
 20
735.7832509158828
 30
0.0
 10
71.59113255419167
 20
721.8737406629484
 30
0.0
 10
71.59113255419167
 20
721.8737406629484
 30
0.0
  0
SPLINE
  5
CA
330
C2
100
AcDbEntity
  8
Layer 1
 62
    40
370
    13
100
AcDbSpline
210
0.0
220
0.0
230
1.0
 70
    11
 71
     3
 72
    41
 73
    37
 74
     0
 42
0.0000000001
 43
0.0000000001
 12
1.0
 22
0.0
 32
0.0
 13
1.0
 23
0.0
 33
0.0
 40
0.0
 40
0.0
 40
0.0
 40
0.0
 40
1.0
 40
1.0
 40
1.0
 40
2.0
 40
2.0
 40
2.0
 40
3.0
 40
3.0
 40
3.0
 40
4.0
 40
4.0
 40
4.0
 40
5.0
 40
5.0
 40
5.0
 40
6.0
 40
6.0
 40
6.0
 40
7.0
 40
7.0
 40
7.0
 40
8.0
 40
8.0
 40
8.0
 40
9.0
 40
9.0
 40
9.0
 40
10.0
 40
10.0
 40
10.0
 40
11.0
 40
11.0
 40
11.0
 40
12.0
 40
12.0
 40
12.0
 40
12.0
 10
86.69775391793706
 20
733.8908945060989
 30
0.0
 10
86.69775391793706
 20
733.8908945060989
 30
0.0
 10
85.31186759349725
 20
732.5901872414655
 30
0.0
 10
85.31186759349725
 20
732.5901872414655
 30
0.0
 10
84.2655464399127
 20
733.7481620274993
 30
0.0
 10
83.44598575635685
 20
734.1441295487698
 30
0.0
 10
82.11765285070723
 20
734.1441295487698
 30
0.0
 10
80.76054323566059
 20
734.1441295487698
 30
0.0
 10
79.62904302226896
 20
733.6077316856572
 30
0.0
 10
78.89466139852051
 20
732.5602594636952
 30
0.0
 10
78.24430776620511
 20
731.6555197203326
 30
0.0
 10
77.98992165515693
 20
730.5827239941032
 30
0.0
 10
77.98992165515693
 20
728.8284957894156
 30
0.0
 10
77.98992165515693
 20
727.076569721478
 30
0.0
 10
78.24430776620511
 20
726.0014718584952
 30
0.0
 10
78.89466139852051
 20
725.0967321151361
 30
0.0
 10
79.62904302226896
 20
724.0515620299275
 30
0.0
 10
80.76054323566059
 20
723.5128620300575
 30
0.0
 10
82.11765285070723
 20
723.5128620300575
 30
0.0
 10
83.44598575635685
 20
723.5128620300575
 30
0.0
 10
84.2655464399127
 20
723.9387573290984
 30
0.0
 10
85.31186759349725
 20
725.0967321151361
 30
0.0
 10
85.31186759349725
 20
725.0967321151361
 30
0.0
 10
86.69775391793706
 20
723.7683992094856
 30
0.0
 10
86.69775391793706
 20
723.7683992094856
 30
0.0
 10
85.25546524308335
 20
722.212154765428
 30
0.0
 10
84.03993703826059
 20
721.7033825433323
 30
0.0
 10
82.11765285070723
 20
721.7033825433323
 30
0.0
 10
78.61149857807852
 20
721.7033825433323
 30
0.0
 10
75.95368169840205
 20
724.0791876709446
 30
0.0
 10
75.95368169840205
 20
728.8284957894156
 30
0.0
 10
75.95368169840205
 20
733.5778039078865
 30
0.0
 10
78.61149857807852
 20
735.9536090354957
 30
0.0
 10
82.11765285070723
 20
735.9536090354957
 30
0.0
 10
84.03993703826059
 20
735.9536090354957
 30
0.0
 10
85.25546524308335
 20
735.4448368134032
 30
0.0
 10
86.69775391793706
 20
733.8908945060989
 30
0.0
  0
SPLINE
  5
CB
330
C2
100
AcDbEntity
  8
Layer 1
 62
    40
370
    13
100
AcDbSpline
210
0.0
220
0.0
230
1.0
 70
    11
 71
     3
 72
    53
 73
    49
 74
     0
 42
0.0000000001
 43
0.0000000001
 12
1.0
 22
0.0
 32
0.0
 13
1.0
 23
0.0
 33
0.0
 40
0.0
 40
0.0
 40
0.0
 40
0.0
 40
1.0
 40
1.0
 40
1.0
 40
2.0
 40
2.0
 40
2.0
 40
3.0
 40
3.0
 40
3.0
 40
4.0
 40
4.0
 40
4.0
 40
5.0
 40
5.0
 40
5.0
 40
6.0
 40
6.0
 40
6.0
 40
7.0
 40
7.0
 40
7.0
 40
8.0
 40
8.0
 40
8.0
 40
9.0
 40
9.0
 40
9.0
 40
10.0
 40
10.0
 40
10.0
 40
11.0
 40
11.0
 40
11.0
 40
12.0
 40
12.0
 40
12.0
 40
13.0
 40
13.0
 40
13.0
 40
14.0
 40
14.0
 40
14.0
 40
15.0
 40
15.0
 40
15.0
 40
16.0
 40
16.0
 40
16.0
 40
16.0
 10
92.95381054030283
 20
735.7832509158828
 30
0.0
 10
92.95381054030283
 20
735.7832509158828
 30
0.0
 10
95.92241588144297
 20
735.7832509158828
 30
0.0
 10
95.92241588144297
 20
735.7832509158828
 30
0.0
 10
95.92241588144297
 20
735.7832509158828
 30
0.0
 10
95.92241588144297
 20
734.2293086085747
 30
0.0
 10
95.92241588144297
 20
734.2293086085747
 30
0.0
 10
95.92241588144297
 20
734.2293086085747
 30
0.0
 10
92.95381054030283
 20
734.2293086085747
 30
0.0
 10
92.95381054030283
 20
734.2293086085747
 30
0.0
 10
92.95381054030283
 20
734.2293086085747
 30
0.0
 10
92.95381054030283
 20
725.6630577560194
 30
0.0
 10
92.95381054030283
 20
725.6630577560194
 30
0.0
 10
92.95381054030283
 20
724.362350491386
 30
0.0
 10
93.54776182220655
 20
723.6256667308863
 30
0.0
 10
94.8484690868412
 20
723.6256667308863
 30
0.0
 10
94.8484690868412
 20
723.6256667308863
 30
0.0
 10
95.92241588144297
 20
723.6256667308863
 30
0.0
 10
95.92241588144297
 20
723.6256667308863
 30
0.0
 10
95.92241588144297
 20
723.6256667308863
 30
0.0
 10
95.92241588144297
 20
721.8737406629484
 30
0.0
 10
95.92241588144297
 20
721.8737406629484
 30
0.0
 10
95.92241588144297
 20
721.8737406629484
 30
0.0
 10
94.48012720658959
 20
721.8737406629484
 30
0.0
 10
94.48012720658959
 20
721.8737406629484
 30
0.0
 10
92.10547314735508
 20
721.8737406629484
 30
0.0
 10
90.91757058354825
 20
723.5427898078318
 30
0.0
 10
90.91757058354825
 20
725.6055043372282
 30
0.0
 10
90.91757058354825
 20
725.6055043372282
 30
0.0
 10
90.91757058354825
 20
734.2293086085747
 30
0.0
 10
90.91757058354825
 20
734.2293086085747
 30
0.0
 10
90.91757058354825
 20
734.2293086085747
 30
0.0
 10
89.16449344723503
 20
734.2293086085747
 30
0.0
 10
89.16449344723503
 20
734.2293086085747
 30
0.0
 10
89.16449344723503
 20
734.2293086085747
 30
0.0
 10
89.16449344723503
 20
735.7832509158828
 30
0.0
 10
89.16449344723503
 20
735.7832509158828
 30
0.0
 10
89.16449344723503
 20
735.7832509158828
 30
0.0
 10
90.91757058354825
 20
735.7832509158828
 30
0.0
 10
90.91757058354825
 20
735.7832509158828
 30
0.0
 10
90.91757058354825
 20
735.7832509158828
 30
0.0
 10
90.91757058354825
 20
740.0537145900249
 30
0.0
 10
90.91757058354825
 20
740.0537145900249
 30
0.0
 10
90.91757058354825
 20
740.0537145900249
 30
0.0
 10
92.95381054030283
 20
740.0537145900249
 30
0.0
 10
92.95381054030283
 20
740.0537145900249
 30
0.0
 10
92.95381054030283
 20
740.0537145900249
 30
0.0
 10
92.95381054030283
 20
735.7832509158828
 30
0.0
 10
92.95381054030283
 20
735.7832509158828
 30
0.0
  0
SPLINE
  5
CC
330
C2
100
AcDbEntity
  8
Layer 1
 62
    40
370
    13
100
AcDbSpline
210
0.0
220
0.0
230
1.0
 70
    11
 71
     3
 72
    44
 73
    40
 74
     0
 42
0.0000000001
 43
0.0000000001
 12
1.0
 22
0.0
 32
0.0
 13
1.0
 23
0.0
 33
0.0
 40
0.0
 40
0.0
 40
0.0
 40
0.0
 40
1.0
 40
1.0
 40
1.0
 40
2.0
 40
2.0
 40
2.0
 40
3.0
 40
3.0
 40
3.0
 40
4.0
 40
4.0
 40
4.0
 40
5.0
 40
5.0
 40
5.0
 40
6.0
 40
6.0
 40
6.0
 40
7.0
 40
7.0
 40
7.0
 40
8.0
 40
8.0
 40
8.0
 40
9.0
 40
9.0
 40
9.0
 40
10.0
 40
10.0
 40
10.0
 40
11.0
 40
11.0
 40
11.0
 40
12.0
 40
12.0
 40
12.0
 40
13.0
 40
13.0
 40
13.0
 40
13.0
 10
110.7976725016555
 20
721.8737406629484
 30
0.0
 10
110.7976725016555
 20
721.8737406629484
 30
0.0
 10
108.7902092542944
 20
721.8737406629484
 30
0.0
 10
108.7902092542944
 20
721.8737406629484
 30
0.0
 10
108.7902092542944
 20
721.8737406629484
 30
0.0
 10
108.7902092542944
 20
723.4276829702527
 30
0.0
 10
108.7902092542944
 20
723.4276829702527
 30
0.0
 10
107.8002904511215
 20
722.297333825236
 30
0.0
 10
106.4155551950577
 20
721.7033825433323
 30
0.0
 10
104.8604618193794
 20
721.7033825433323
 30
0.0
 10
103.3617707941121
 20
721.7033825433323
 30
0.0
 10
102.1174658798936
 20
722.1569034833904
 30
0.0
 10
101.2691284869436
 20
723.0040898079653
 30
0.0
 10
100.280360752147
 20
723.9663829701155
 30
0.0
 10
99.82799088046615
 20
725.2947158757694
 30
0.0
 10
99.82799088046615
 20
726.9062116018613
 30
0.0
 10
99.82799088046615
 20
726.9062116018613
 30
0.0
 10
99.82799088046615
 20
735.7832509158828
 30
0.0
 10
99.82799088046615
 20
735.7832509158828
 30
0.0
 10
99.82799088046615
 20
735.7832509158828
 30
0.0
 10
101.8630797688454
 20
735.7832509158828
 30
0.0
 10
101.8630797688454
 20
735.7832509158828
 30
0.0
 10
101.8630797688454
 20
735.7832509158828
 30
0.0
 10
101.8630797688454
 20
727.2170000633237
 30
0.0
 10
101.8630797688454
 20
727.2170000633237
 30
0.0
 10
101.8630797688454
 20
724.7583180126533
 30
0.0
 10
103.1925637428732
 20
723.5128620300575
 30
0.0
 10
105.284054981666
 20
723.5128620300575
 30
0.0
 10
107.3766972888345
 20
723.5128620300575
 30
0.0
 10
108.7625836132743
 20
724.7859436536737
 30
0.0
 10
108.7625836132743
 20
727.2170000633237
 30
0.0
 10
108.7625836132743
 20
727.2170000633237
 30
0.0
 10
108.7625836132743
 20
735.7832509158828
 30
0.0
 10
108.7625836132743
 20
735.7832509158828
 30
0.0
 10
108.7625836132743
 20
735.7832509158828
 30
0.0
 10
110.7976725016555
 20
735.7832509158828
 30
0.0
 10
110.7976725016555
 20
735.7832509158828
 30
0.0
 10
110.7976725016555
 20
735.7832509158828
 30
0.0
 10
110.7976725016555
 20
721.8737406629484
 30
0.0
 10
110.7976725016555
 20
721.8737406629484
 30
0.0
  0
SPLINE
  5
CD
330
C2
100
AcDbEntity
  8
Layer 1
 62
    40
370
    13
100
AcDbSpline
210
0.0
220
0.0
230
1.0
 70
    11
 71
     3
 72
    35
 73
    31
 74
     0
 42
0.0000000001
 43
0.0000000001
 12
1.0
 22
0.0
 32
0.0
 13
1.0
 23
0.0
 33
0.0
 40
0.0
 40
0.0
 40
0.0
 40
0.0
 40
1.0
 40
1.0
 40
1.0
 40
2.0
 40
2.0
 40
2.0
 40
3.0
 40
3.0
 40
3.0
 40
4.0
 40
4.0
 40
4.0
 40
5.0
 40
5.0
 40
5.0
 40
6.0
 40
6.0
 40
6.0
 40
7.0
 40
7.0
 40
7.0
 40
8.0
 40
8.0
 40
8.0
 40
9.0
 40
9.0
 40
9.0
 40
10.0
 40
10.0
 40
10.0
 40
10.0
 10
125.1699122416499
 20
734.6529017708658
 30
0.0
 10
125.1699122416499
 20
734.6529017708658
 30
0.0
 10
123.6712212163848
 20
733.1265851045823
 30
0.0
 10
123.6712212163848
 20
733.1265851045823
 30
0.0
 10
122.9069118148666
 20
733.8908945060989
 30
0.0
 10
122.3405861739823
 20
734.1441295487698
 30
0.0
 10
121.2677904477546
 20
734.1441295487698
 30
0.0
 10
119.2303994226234
 20
734.1441295487698
 30
0.0
 10
117.9319942947429
 20
732.5326338226779
 30
0.0
 10
117.9319942947429
 20
730.4123658744871
 30
0.0
 10
117.9319942947429
 20
730.4123658744871
 30
0.0
 10
117.9319942947429
 20
721.8737406629484
 30
0.0
 10
117.9319942947429
 20
721.8737406629484
 30
0.0
 10
117.9319942947429
 20
721.8737406629484
 30
0.0
 10
115.8946032696098
 20
721.8737406629484
 30
0.0
 10
115.8946032696098
 20
721.8737406629484
 30
0.0
 10
115.8946032696098
 20
721.8737406629484
 30
0.0
 10
115.8946032696098
 20
735.7832509158828
 30
0.0
 10
115.8946032696098
 20
735.7832509158828
 30
0.0
 10
115.8946032696098
 20
735.7832509158828
 30
0.0
 10
117.9319942947429
 20
735.7832509158828
 30
0.0
 10
117.9319942947429
 20
735.7832509158828
 30
0.0
 10
117.9319942947429
 20
735.7832509158828
 30
0.0
 10
117.9319942947429
 20
734.0865761299822
 30
0.0
 10
117.9319942947429
 20
734.0865761299822
 30
0.0
 10
118.6940015595092
 20
735.2468530527699
 30
0.0
 10
120.2203182257941
 20
735.9536090354957
 30
0.0
 10
121.8318139518908
 20
735.9536090354957
 30
0.0
 10
123.1624489942885
 20
735.9536090354957
 30
0.0
 10
124.1799934384812
 20
735.6428205740365
 30
0.0
 10
125.1699122416499
 20
734.6529017708658
 30
0.0
  0
SPLINE
  5
CE
330
C2
100
AcDbEntity
  8
Layer 1
 62
    40
370
    13
100
AcDbSpline
210
0.0
220
0.0
230
1.0
 70
    11
 71
     3
 72
    47
 73
    43
 74
     0
 42
0.0000000001
 43
0.0000000001
 12
1.0
 22
0.0
 32
0.0
 13
1.0
 23
0.0
 33
0.0
 40
0.0
 40
0.0
 40
0.0
 40
0.0
 40
1.0
 40
1.0
 40
1.0
 40
2.0
 40
2.0
 40
2.0
 40
3.0
 40
3.0
 40
3.0
 40
4.0
 40
4.0
 40
4.0
 40
5.0
 40
5.0
 40
5.0
 40
6.0
 40
6.0
 40
6.0
 40
7.0
 40
7.0
 40
7.0
 40
8.0
 40
8.0
 40
8.0
 40
9.0
 40
9.0
 40
9.0
 40
10.0
 40
10.0
 40
10.0
 40
11.0
 40
11.0
 40
11.0
 40
12.0
 40
12.0
 40
12.0
 40
13.0
 40
13.0
 40
13.0
 40
14.0
 40
14.0
 40
14.0
 40
14.0
 10
137.4449054009755
 20
731.3171056178533
 30
0.0
 10
137.4449054009755
 20
731.3171056178533
 30
0.0
 10
137.4449054009755
 20
721.8737406629484
 30
0.0
 10
137.4449054009755
 20
721.8737406629484
 30
0.0
 10
137.4449054009755
 20
721.8737406629484
 30
0.0
 10
135.4098165125963
 20
721.8737406629484
 30
0.0
 10
135.4098165125963
 20
721.8737406629484
 30
0.0
 10
135.4098165125963
 20
721.8737406629484
 30
0.0
 10
135.4098165125963
 20
723.202073568599
 30
0.0
 10
135.4098165125963
 20
723.202073568599
 30
0.0
 10
134.3070930085987
 20
722.0993500646027
 30
0.0
 10
133.2596207866385
 20
721.7033825433323
 30
0.0
 10
131.3948900178741
 20
721.7033825433323
 30
0.0
 10
129.4726058303179
 20
721.7033825433323
 30
0.0
 10
128.425133608358
 20
722.0440987825651
 30
0.0
 10
127.4651425829568
 20
722.9764641669485
 30
0.0
 10
126.7583866002281
 20
723.655594508657
 30
0.0
 10
126.4176703609963
 20
724.7007645938656
 30
0.0
 10
126.4176703609963
 20
725.8034880978619
 30
0.0
 10
126.4176703609963
 20
728.2644722852855
 30
0.0
 10
128.1442729246679
 20
729.8184145925827
 30
0.0
 10
131.2521575392771
 20
729.8184145925827
 30
0.0
 10
131.2521575392771
 20
729.8184145925827
 30
0.0
 10
135.4098165125963
 20
729.8184145925827
 30
0.0
 10
135.4098165125963
 20
729.8184145925827
 30
0.0
 10
135.4098165125963
 20
729.8184145925827
 30
0.0
 10
135.4098165125963
 20
731.1467474982333
 30
0.0
 10
135.4098165125963
 20
731.1467474982333
 30
0.0
 10
135.4098165125963
 20
733.1542107455956
 30
0.0
 10
134.4198977094214
 20
734.2016829675574
 30
0.0
 10
131.8461088211764
 20
734.2016829675574
 30
0.0
 10
130.0941827532414
 20
734.2016829675574
 30
0.0
 10
129.1894430098762
 20
733.7481620274993
 30
0.0
 10
128.3399545485503
 20
732.5901872414655
 30
0.0
 10
128.3399545485503
 20
732.5901872414655
 30
0.0
 10
126.9563703608624
 20
733.8609667283285
 30
0.0
 10
126.9563703608624
 20
733.8609667283285
 30
0.0
 10
128.1718985656877
 20
735.4724624544205
 30
0.0
 10
129.5854105311457
 20
735.9536090354957
 30
0.0
 10
131.8760365989484
 20
735.9536090354957
 30
0.0
 10
135.6354259142487
 20
735.9536090354957
 30
0.0
 10
137.4449054009755
 20
734.3144876683828
 30
0.0
 10
137.4449054009755
 20
731.3171056178533
 30
0.0
  0
SPLINE
  5
CF
330
C2
100
AcDbEntity
  8
Layer 1
 62
    40
370
    13
100
AcDbSpline
210
0.0
220
0.0
230
1.0
 70
    11
 71
     3
 72
    23
 73
    19
 74
     0
 42
0.0000000001
 43
0.0000000001
 12
1.0
 22
0.0
 32
0.0
 13
1.0
 23
0.0
 33
0.0
 40
0.0
 40
0.0
 40
0.0
 40
0.0
 40
1.0
 40
1.0
 40
1.0
 40
2.0
 40
2.0
 40
2.0
 40
3.0
 40
3.0
 40
3.0
 40
4.0
 40
4.0
 40
4.0
 40
5.0
 40
5.0
 40
5.0
 40
6.0
 40
6.0
 40
6.0
 40
6.0
 10
131.5353203597188
 20
728.2920979262992
 30
0.0
 10
129.4426780525506
 20
728.2920979262992
 30
0.0
 10
128.3975079673382
 20
727.4725372427446
 30
0.0
 10
128.3975079673382
 20
725.8311137388823
 30
0.0
 10
128.3975079673382
 20
724.2196180127903
 30
0.0
 10
129.3874267705127
 20
723.4576107480234
 30
0.0
 10
131.6204994195259
 20
723.4576107480234
 30
0.0
 10
132.7807763423142
 20
723.4576107480234
 30
0.0
 10
133.7983207865021
 20
723.5704154488521
 30
0.0
 10
134.7030605298679
 20
724.3899761324033
 30
0.0
 10
135.1842071109425
 20
724.8434970724613
 30
0.0
 10
135.4098165125963
 20
725.633129978249
 30
0.0
 10
135.4098165125963
 20
726.7934069010361
 30
0.0
 10
135.4098165125963
 20
726.7934069010361
 30
0.0
 10
135.4098165125963
 20
728.2920979262992
 30
0.0
 10
135.4098165125963
 20
728.2920979262992
 30
0.0
 10
135.4098165125963
 20
728.2920979262992
 30
0.0
 10
131.5353203597188
 20
728.2920979262992
 30
0.0
 10
131.5353203597188
 20
728.2920979262992
 30
0.0
  0
SPLINE
  5
D0
330
C2
100
AcDbEntity
  8
Layer 1
 62
    40
370
    13
100
AcDbSpline
210
0.0
220
0.0
230
1.0
 70
    11
 71
     3
 72
    29
 73
    25
 74
     0
 42
0.0000000001
 43
0.0000000001
 12
1.0
 22
0.0
 32
0.0
 13
1.0
 23
0.0
 33
0.0
 40
0.0
 40
0.0
 40
0.0
 40
0.0
 40
1.0
 40
1.0
 40
1.0
 40
2.0
 40
2.0
 40
2.0
 40
3.0
 40
3.0
 40
3.0
 40
4.0
 40
4.0
 40
4.0
 40
5.0
 40
5.0
 40
5.0
 40
6.0
 40
6.0
 40
6.0
 40
7.0
 40
7.0
 40
7.0
 40
8.0
 40
8.0
 40
8.0
 40
8.0
 10
144.3812434334306
 20
725.6630577560194
 30
0.0
 10
144.3812434334306
 20
724.3047970725984
 30
0.0
 10
144.834764373487
 20
723.6256667308863
 30
0.0
 10
146.2482763389447
 20
723.6256667308863
 30
0.0
 10
146.2482763389447
 20
723.6256667308863
 30
0.0
 10
147.3509998429448
 20
723.6256667308863
 30
0.0
 10
147.3509998429448
 20
723.6256667308863
 30
0.0
 10
147.3509998429448
 20
723.6256667308863
 30
0.0
 10
147.3509998429448
 20
721.8737406629484
 30
0.0
 10
147.3509998429448
 20
721.8737406629484
 30
0.0
 10
147.3509998429448
 20
721.8737406629484
 30
0.0
 10
145.8799344586957
 20
721.8737406629484
 30
0.0
 10
145.8799344586957
 20
721.8737406629484
 30
0.0
 10
143.448878049045
 20
721.8737406629484
 30
0.0
 10
142.3461545450494
 20
723.4576107480234
 30
0.0
 10
142.3461545450494
 20
725.5778786962113
 30
0.0
 10
142.3461545450494
 20
725.5778786962113
 30
0.0
 10
142.3461545450494
 20
742.0036244186
 30
0.0
 10
142.3461545450494
 20
742.0036244186
 30
0.0
 10
142.3461545450494
 20
742.0036244186
 30
0.0
 10
144.3812434334306
 20
742.0036244186
 30
0.0
 10
144.3812434334306
 20
742.0036244186
 30
0.0
 10
144.3812434334306
 20
742.0036244186
 30
0.0
 10
144.3812434334306
 20
725.6630577560194
 30
0.0
 10
144.3812434334306
 20
725.6630577560194
 30
0.0
  0
SPLINE
  5
D1
330
C2
100
AcDbEntity
  8
Layer 1
 62
    40
370
    13
100
AcDbSpline
210
0.0
220
0.0
230
1.0
 70
    11
 71
     3
 72
    26
 73
    22
 74
     0
 42
0.0000000001
 43
0.0000000001
 12
1.0
 22
0.0
 32
0.0
 13
1.0
 23
0.0
 33
0.0
 40
0.0
 40
0.0
 40
0.0
 40
0.0
 40
1.0
 40
1.0
 40
1.0
 40
2.0
 40
2.0
 40
2.0
 40
3.0
 40
3.0
 40
3.0
 40
4.0
 40
4.0
 40
4.0
 40
5.0
 40
5.0
 40
5.0
 40
6.0
 40
6.0
 40
6.0
 40
7.0
 40
7.0
 40
7.0
 40
7.0
 10
165.7911152229486
 20
742.0036244186
 30
0.0
 10
169.2972694955751
 20
742.0036244186
 30
0.0
 10
171.7283259052251
 20
739.9961611712373
 30
0.0
 10
171.7283259052251
 20
736.6327393772075
 30
0.0
 10
171.7283259052251
 20
734.5124714290199
 30
0.0
 10
170.4575464183625
 20
732.8434222841403
 30
0.0
 10
168.7608716324628
 20
732.2218453612159
 30
0.0
 10
170.6831558200168
 20
731.5150893784904
 30
0.0
 10
172.0414165034346
 20
729.8460402336037
 30
0.0
 10
172.0414165034346
 20
727.4426094649742
 30
0.0
 10
172.0414165034346
 20
723.7960248505027
 30
0.0
 10
169.6080579570371
 20
721.8737406629484
 30
0.0
 10
166.0466524023708
 20
721.8737406629484
 30
0.0
 10
166.0466524023708
 20
721.8737406629484
 30
0.0
 10
158.2147831735608
 20
721.8737406629484
 30
0.0
 10
158.2147831735608
 20
721.8737406629484
 30
0.0
 10
158.2147831735608
 20
721.8737406629484
 30
0.0
 10
158.2147831735608
 20
742.0036244186
 30
0.0
 10
158.2147831735608
 20
742.0036244186
 30
0.0
 10
158.2147831735608
 20
742.0036244186
 30
0.0
 10
165.7911152229486
 20
742.0036244186
 30
0.0
 10
165.7911152229486
 20
742.0036244186
 30
0.0
  0
SPLINE
  5
D2
330
C2
100
AcDbEntity
  8
Layer 1
 62
    40
370
    13
100
AcDbSpline
210
0.0
220
0.0
230
1.0
 70
    11
 71
     3
 72
    20
 73
    16
 74
     0
 42
0.0000000001
 43
0.0000000001
 12
1.0
 22
0.0
 32
0.0
 13
1.0
 23
0.0
 33
0.0
 40
0.0
 40
0.0
 40
0.0
 40
0.0
 40
1.0
 40
1.0
 40
1.0
 40
2.0
 40
2.0
 40
2.0
 40
3.0
 40
3.0
 40
3.0
 40
4.0
 40
4.0
 40
4.0
 40
5.0
 40
5.0
 40
5.0
 40
5.0
 10
160.3626767627646
 20
740.0813402310457
 30
0.0
 10
160.3626767627646
 20
740.0813402310457
 30
0.0
 10
160.3626767627646
 20
733.0989594635615
 30
0.0
 10
160.3626767627646
 20
733.0989594635615
 30
0.0
 10
160.3626767627646
 20
733.0989594635615
 30
0.0
 10
165.6230592400819
 20
733.0989594635615
 30
0.0
 10
165.6230592400819
 20
733.0989594635615
 30
0.0
 10
167.856131889098
 20
733.0989594635615
 30
0.0
 10
169.5804323160167
 20
734.2016829675574
 30
0.0
 10
169.5804323160167
 20
736.605113736187
 30
0.0
 10
169.5804323160167
 20
739.0062423680666
 30
0.0
 10
167.856131889098
 20
740.0813402310457
 30
0.0
 10
165.6230592400819
 20
740.0813402310457
 30
0.0
 10
165.6230592400819
 20
740.0813402310457
 30
0.0
 10
160.3626767627646
 20
740.0813402310457
 30
0.0
 10
160.3626767627646
 20
740.0813402310457
 30
0.0
  0
SPLINE
  5
D3
330
C2
100
AcDbEntity
  8
Layer 1
 62
    40
370
    13
100
AcDbSpline
210
0.0
220
0.0
230
1.0
 70
    11
 71
     3
 72
    20
 73
    16
 74
     0
 42
0.0000000001
 43
0.0000000001
 12
1.0
 22
0.0
 32
0.0
 13
1.0
 23
0.0
 33
0.0
 40
0.0
 40
0.0
 40
0.0
 40
0.0
 40
1.0
 40
1.0
 40
1.0
 40
2.0
 40
2.0
 40
2.0
 40
3.0
 40
3.0
 40
3.0
 40
4.0
 40
4.0
 40
4.0
 40
5.0
 40
5.0
 40
5.0
 40
5.0
 10
160.3626767627646
 20
731.1766752760072
 30
0.0
 10
160.3626767627646
 20
731.1766752760072
 30
0.0
 10
160.3626767627646
 20
723.7960248505027
 30
0.0
 10
160.3626767627646
 20
723.7960248505027
 30
0.0
 10
160.3626767627646
 20
723.7960248505027
 30
0.0
 10
165.8486686417363
 20
723.7960248505027
 30
0.0
 10
165.8486686417363
 20
723.7960248505027
 30
0.0
 10
168.3372784701745
 20
723.7960248505027
 30
0.0
 10
169.8912207774788
 20
725.2371624569782
 30
0.0
 10
169.8912207774788
 20
727.5001628837654
 30
0.0
 10
169.8912207774788
 20
729.7608611737954
 30
0.0
 10
168.3372784701745
 20
731.1766752760072
 30
0.0
 10
165.8486686417363
 20
731.1766752760072
 30
0.0
 10
165.8486686417363
 20
731.1766752760072
 30
0.0
 10
160.3626767627646
 20
731.1766752760072
 30
0.0
 10
160.3626767627646
 20
731.1766752760072
 30
0.0
  0
SPLINE
  5
D4
330
C2
100
AcDbEntity
  8
Layer 1
 62
    40
370
    13
100
AcDbSpline
210
0.0
220
0.0
230
1.0
 70
    11
 71
     3
 72
    35
 73
    31
 74
     0
 42
0.0000000001
 43
0.0000000001
 12
1.0
 22
0.0
 32
0.0
 13
1.0
 23
0.0
 33
0.0
 40
0.0
 40
0.0
 40
0.0
 40
0.0
 40
1.0
 40
1.0
 40
1.0
 40
2.0
 40
2.0
 40
2.0
 40
3.0
 40
3.0
 40
3.0
 40
4.0
 40
4.0
 40
4.0
 40
5.0
 40
5.0
 40
5.0
 40
6.0
 40
6.0
 40
6.0
 40
7.0
 40
7.0
 40
7.0
 40
8.0
 40
8.0
 40
8.0
 40
9.0
 40
9.0
 40
9.0
 40
10.0
 40
10.0
 40
10.0
 40
10.0
 10
186.0176887221643
 20
734.6529017708658
 30
0.0
 10
186.0176887221643
 20
734.6529017708658
 30
0.0
 10
184.5189976968992
 20
733.1265851045823
 30
0.0
 10
184.5189976968992
 20
733.1265851045823
 30
0.0
 10
183.7546882953807
 20
733.8908945060989
 30
0.0
 10
183.1883626544968
 20
734.1441295487698
 30
0.0
 10
182.115566928269
 20
734.1441295487698
 30
0.0
 10
180.0804780398879
 20
734.1441295487698
 30
0.0
 10
178.7797707752574
 20
732.5326338226779
 30
0.0
 10
178.7797707752574
 20
730.4123658744871
 30
0.0
 10
178.7797707752574
 20
730.4123658744871
 30
0.0
 10
178.7797707752574
 20
721.8737406629484
 30
0.0
 10
178.7797707752574
 20
721.8737406629484
 30
0.0
 10
178.7797707752574
 20
721.8737406629484
 30
0.0
 10
176.7423797501243
 20
721.8737406629484
 30
0.0
 10
176.7423797501243
 20
721.8737406629484
 30
0.0
 10
176.7423797501243
 20
721.8737406629484
 30
0.0
 10
176.7423797501243
 20
735.7832509158828
 30
0.0
 10
176.7423797501243
 20
735.7832509158828
 30
0.0
 10
176.7423797501243
 20
735.7832509158828
 30
0.0
 10
178.7797707752574
 20
735.7832509158828
 30
0.0
 10
178.7797707752574
 20
735.7832509158828
 30
0.0
 10
178.7797707752574
 20
735.7832509158828
 30
0.0
 10
178.7797707752574
 20
734.0865761299822
 30
0.0
 10
178.7797707752574
 20
734.0865761299822
 30
0.0
 10
179.5417780400237
 20
735.2468530527699
 30
0.0
 10
181.0680947063085
 20
735.9536090354957
 30
0.0
 10
182.6795904324004
 20
735.9536090354957
 30
0.0
 10
184.0102254748029
 20
735.9536090354957
 30
0.0
 10
185.0277699189911
 20
735.6428205740365
 30
0.0
 10
186.0176887221643
 20
734.6529017708658
 30
0.0
  0
SPLINE
  5
D5
330
C2
100
AcDbEntity
  8
Layer 1
 62
    40
370
    13
100
AcDbSpline
210
0.0
220
0.0
230
1.0
 70
    11
 71
     3
 72
    47
 73
    43
 74
     0
 42
0.0000000001
 43
0.0000000001
 12
1.0
 22
0.0
 32
0.0
 13
1.0
 23
0.0
 33
0.0
 40
0.0
 40
0.0
 40
0.0
 40
0.0
 40
1.0
 40
1.0
 40
1.0
 40
2.0
 40
2.0
 40
2.0
 40
3.0
 40
3.0
 40
3.0
 40
4.0
 40
4.0
 40
4.0
 40
5.0
 40
5.0
 40
5.0
 40
6.0
 40
6.0
 40
6.0
 40
7.0
 40
7.0
 40
7.0
 40
8.0
 40
8.0
 40
8.0
 40
9.0
 40
9.0
 40
9.0
 40
10.0
 40
10.0
 40
10.0
 40
11.0
 40
11.0
 40
11.0
 40
12.0
 40
12.0
 40
12.0
 40
13.0
 40
13.0
 40
13.0
 40
14.0
 40
14.0
 40
14.0
 40
14.0
 10
198.294984018238
 20
731.3171056178533
 30
0.0
 10
198.294984018238
 20
731.3171056178533
 30
0.0
 10
198.294984018238
 20
721.8737406629484
 30
0.0
 10
198.294984018238
 20
721.8737406629484
 30
0.0
 10
198.294984018238
 20
721.8737406629484
 30
0.0
 10
196.259895129861
 20
721.8737406629484
 30
0.0
 10
196.259895129861
 20
721.8737406629484
 30
0.0
 10
196.259895129861
 20
721.8737406629484
 30
0.0
 10
196.259895129861
 20
723.202073568599
 30
0.0
 10
196.259895129861
 20
723.202073568599
 30
0.0
 10
195.1571716258609
 20
722.0993500646027
 30
0.0
 10
194.1096994039004
 20
721.7033825433323
 30
0.0
 10
192.2449686351385
 20
721.7033825433323
 30
0.0
 10
190.3226844475845
 20
721.7033825433323
 30
0.0
 10
189.2752122256243
 20
722.0440987825651
 30
0.0
 10
188.3152212002231
 20
722.9764641669485
 30
0.0
 10
187.6084652174919
 20
723.655594508657
 30
0.0
 10
187.2677489782629
 20
724.7007645938656
 30
0.0
 10
187.2677489782629
 20
725.8034880978619
 30
0.0
 10
187.2677489782629
 20
728.2644722852855
 30
0.0
 10
188.9943515419339
 20
729.8184145925827
 30
0.0
 10
192.1022361565393
 20
729.8184145925827
 30
0.0
 10
192.1022361565393
 20
729.8184145925827
 30
0.0
 10
196.259895129861
 20
729.8184145925827
 30
0.0
 10
196.259895129861
 20
729.8184145925827
 30
0.0
 10
196.259895129861
 20
729.8184145925827
 30
0.0
 10
196.259895129861
 20
731.1467474982333
 30
0.0
 10
196.259895129861
 20
731.1467474982333
 30
0.0
 10
196.259895129861
 20
733.1542107455956
 30
0.0
 10
195.2699763266881
 20
734.2016829675574
 30
0.0
 10
192.6961874384427
 20
734.2016829675574
 30
0.0
 10
190.9442613705039
 20
734.2016829675574
 30
0.0
 10
190.0395216271425
 20
733.7481620274993
 30
0.0
 10
189.1900331658169
 20
732.5901872414655
 30
0.0
 10
189.1900331658169
 20
732.5901872414655
 30
0.0
 10
187.8064489781268
 20
733.8609667283285
 30
0.0
 10
187.8064489781268
 20
733.8609667283285
 30
0.0
 10
189.0219771829499
 20
735.4724624544205
 30
0.0
 10
190.4354891484114
 20
735.9536090354957
 30
0.0
 10
192.7261152162147
 20
735.9536090354957
 30
0.0
 10
196.4855045315108
 20
735.9536090354957
 30
0.0
 10
198.294984018238
 20
734.3144876683828
 30
0.0
 10
198.294984018238
 20
731.3171056178533
 30
0.0
  0
SPLINE
  5
D6
330
C2
100
AcDbEntity
  8
Layer 1
 62
    40
370
    13
100
AcDbSpline
210
0.0
220
0.0
230
1.0
 70
    11
 71
     3
 72
    23
 73
    19
 74
     0
 42
0.0000000001
 43
0.0000000001
 12
1.0
 22
0.0
 32
0.0
 13
1.0
 23
0.0
 33
0.0
 40
0.0
 40
0.0
 40
0.0
 40
0.0
 40
1.0
 40
1.0
 40
1.0
 40
2.0
 40
2.0
 40
2.0
 40
3.0
 40
3.0
 40
3.0
 40
4.0
 40
4.0
 40
4.0
 40
5.0
 40
5.0
 40
5.0
 40
6.0
 40
6.0
 40
6.0
 40
6.0
 10
192.3853989769813
 20
728.2920979262992
 30
0.0
 10
190.2927566698131
 20
728.2920979262992
 30
0.0
 10
189.2475865846042
 20
727.4725372427446
 30
0.0
 10
189.2475865846042
 20
725.8311137388823
 30
0.0
 10
189.2475865846042
 20
724.2196180127903
 30
0.0
 10
190.2375053877771
 20
723.4576107480234
 30
0.0
 10
192.4705780367884
 20
723.4576107480234
 30
0.0
 10
193.6308549595757
 20
723.4576107480234
 30
0.0
 10
194.6483994037684
 20
723.5704154488521
 30
0.0
 10
195.5531391471294
 20
724.3899761324033
 30
0.0
 10
196.0342857282066
 20
724.8434970724613
 30
0.0
 10
196.259895129861
 20
725.633129978249
 30
0.0
 10
196.259895129861
 20
726.7934069010361
 30
0.0
 10
196.259895129861
 20
726.7934069010361
 30
0.0
 10
196.259895129861
 20
728.2920979262992
 30
0.0
 10
196.259895129861
 20
728.2920979262992
 30
0.0
 10
196.259895129861
 20
728.2920979262992
 30
0.0
 10
192.3853989769813
 20
728.2920979262992
 30
0.0
 10
192.3853989769813
 20
728.2920979262992
 30
0.0
  0
SPLINE
  5
D7
330
C2
100
AcDbEntity
  8
Layer 1
 62
    40
370
    13
100
AcDbSpline
210
0.0
220
0.0
230
1.0
 70
    11
 71
     3
 72
    41
 73
    37
 74
     0
 42
0.0000000001
 43
0.0000000001
 12
1.0
 22
0.0
 32
0.0
 13
1.0
 23
0.0
 33
0.0
 40
0.0
 40
0.0
 40
0.0
 40
0.0
 40
1.0
 40
1.0
 40
1.0
 40
2.0
 40
2.0
 40
2.0
 40
3.0
 40
3.0
 40
3.0
 40
4.0
 40
4.0
 40
4.0
 40
5.0
 40
5.0
 40
5.0
 40
6.0
 40
6.0
 40
6.0
 40
7.0
 40
7.0
 40
7.0
 40
8.0
 40
8.0
 40
8.0
 40
9.0
 40
9.0
 40
9.0
 40
10.0
 40
10.0
 40
10.0
 40
11.0
 40
11.0
 40
11.0
 40
12.0
 40
12.0
 40
12.0
 40
12.0
 10
213.2588729033874
 20
733.8908945060989
 30
0.0
 10
213.2588729033874
 20
733.8908945060989
 30
0.0
 10
211.8729865789456
 20
732.5901872414655
 30
0.0
 10
211.8729865789456
 20
732.5901872414655
 30
0.0
 10
210.8278164937374
 20
733.7481620274993
 30
0.0
 10
210.0082558101834
 20
734.1441295487698
 30
0.0
 10
208.6776207677813
 20
734.1441295487698
 30
0.0
 10
207.3216622211116
 20
734.1441295487698
 30
0.0
 10
206.1913130760956
 20
733.6077316856572
 30
0.0
 10
205.4546293155929
 20
732.5602594636952
 30
0.0
 10
204.8054267516535
 20
731.6555197203326
 30
0.0
 10
204.5498895722319
 20
730.5827239941032
 30
0.0
 10
204.5498895722319
 20
728.8284957894156
 30
0.0
 10
204.5498895722319
 20
727.076569721478
 30
0.0
 10
204.8054267516535
 20
726.0014718584952
 30
0.0
 10
205.4546293155929
 20
725.0967321151361
 30
0.0
 10
206.1913130760956
 20
724.0515620299275
 30
0.0
 10
207.3216622211116
 20
723.5128620300575
 30
0.0
 10
208.6776207677813
 20
723.5128620300575
 30
0.0
 10
210.0082558101834
 20
723.5128620300575
 30
0.0
 10
210.8278164937374
 20
723.9387573290984
 30
0.0
 10
211.8729865789456
 20
725.0967321151361
 30
0.0
 10
211.8729865789456
 20
725.0967321151361
 30
0.0
 10
213.2588729033874
 20
723.7683992094856
 30
0.0
 10
213.2588729033874
 20
723.7683992094856
 30
0.0
 10
211.8177352969103
 20
722.212154765428
 30
0.0
 10
210.5999049553349
 20
721.7033825433323
 30
0.0
 10
208.6776207677813
 20
721.7033825433323
 30
0.0
 10
205.171466495151
 20
721.7033825433323
 30
0.0
 10
202.5148006838504
 20
724.0791876709446
 30
0.0
 10
202.5148006838504
 20
728.8284957894156
 30
0.0
 10
202.5148006838504
 20
733.5778039078865
 30
0.0
 10
205.171466495151
 20
735.9536090354957
 30
0.0
 10
208.6776207677813
 20
735.9536090354957
 30
0.0
 10
210.5999049553349
 20
735.9536090354957
 30
0.0
 10
211.8177352969103
 20
735.4448368134032
 30
0.0
 10
213.2588729033874
 20
733.8908945060989
 30
0.0
  0
POLYLINE
  5
D8
330
C2
100
AcDbEntity
  8
Layer 1
 62
    40
370
    13
100
AcDb2dPolyline
 66
     1
 10
0.0
 20
0.0
 30
0.0
  0
VERTEX
  5
D9
330
D8
100
AcDbEntity
  8
Layer 1
 62
    40
370
    13
100
AcDbVertex
100
AcDb2dVertex
 10
219.1753643548998
 20
728.545332968974
 30
0.0
  0
VERTEX
  5
DA
330
D8
100
AcDbEntity
  8
Layer 1
 62
    40
370
    13
100
AcDbVertex
100
AcDb2dVertex
 10
225.4509891396536
 20
735.7832509158828
 30
0.0
  0
VERTEX
  5
DB
330
D8
100
AcDbEntity
  8
Layer 1
 62
    40
370
    13
100
AcDbVertex
100
AcDb2dVertex
 10
227.9948502501312
 20
735.7832509158828
 30
0.0
  0
VERTEX
  5
DC
330
D8
100
AcDbEntity
  8
Layer 1
 62
    40
370
    13
100
AcDbVertex
100
AcDb2dVertex
 10
223.2731677726784
 20
730.4676171565279
 30
0.0
  0
VERTEX
  5
DD
330
D8
100
AcDbEntity
  8
Layer 1
 62
    40
370
    13
100
AcDbVertex
100
AcDb2dVertex
 10
228.8144109336851
 20
721.8737406629484
 30
0.0
  0
VERTEX
  5
DE
330
D8
100
AcDbEntity
  8
Layer 1
 62
    40
370
    13
100
AcDbVertex
100
AcDb2dVertex
 10
226.2981754642273
 20
721.8737406629484
 30
0.0
  0
VERTEX
  5
DF
330
D8
100
AcDbEntity
  8
Layer 1
 62
    40
370
    13
100
AcDbVertex
100
AcDb2dVertex
 10
221.8895835849879
 20
728.998853909032
 30
0.0
  0
VERTEX
  5
E0
330
D8
100
AcDbEntity
  8
Layer 1
 62
    40
370
    13
100
AcDbVertex
100
AcDb2dVertex
 10
219.1753643548998
 20
725.8886671576699
 30
0.0
  0
VERTEX
  5
E1
330
D8
100
AcDbEntity
  8
Layer 1
 62
    40
370
    13
100
AcDbVertex
100
AcDb2dVertex
 10
219.1753643548998
 20
721.8737406629484
 30
0.0
  0
VERTEX
  5
E2
330
D8
100
AcDbEntity
  8
Layer 1
 62
    40
370
    13
100
AcDbVertex
100
AcDb2dVertex
 10
217.137973329767
 20
721.8737406629484
 30
0.0
  0
VERTEX
  5
E3
330
D8
100
AcDbEntity
  8
Layer 1
 62
    40
370
    13
100
AcDbVertex
100
AcDb2dVertex
 10
217.137973329767
 20
742.0036244186
 30
0.0
  0
VERTEX
  5
E4
330
D8
100
AcDbEntity
  8
Layer 1
 62
    40
370
    13
100
AcDbVertex
100
AcDb2dVertex
 10
219.1753643548998
 20
742.0036244186
 30
0.0
  0
VERTEX
  5
E5
330
D8
100
AcDbEntity
  8
Layer 1
 62
    40
370
    13
100
AcDbVertex
100
AcDb2dVertex
 10
219.1753643548998
 20
728.545332968974
 30
0.0
  0
SEQEND
  5
E6
330
D8
100
AcDbEntity
  8
Layer 1
 62
    40
370
    13
  0
SPLINE
  5
E7
330
C2
100
AcDbEntity
  8
Layer 1
 62
    40
370
    13
100
AcDbSpline
210
0.0
220
0.0
230
1.0
 70
    11
 71
     3
 72
    32
 73
    28
 74
     0
 42
0.0000000001
 43
0.0000000001
 12
1.0
 22
0.0
 32
0.0
 13
1.0
 23
0.0
 33
0.0
 40
0.0
 40
0.0
 40
0.0
 40
0.0
 40
1.0
 40
1.0
 40
1.0
 40
2.0
 40
2.0
 40
2.0
 40
3.0
 40
3.0
 40
3.0
 40
4.0
 40
4.0
 40
4.0
 40
5.0
 40
5.0
 40
5.0
 40
6.0
 40
6.0
 40
6.0
 40
7.0
 40
7.0
 40
7.0
 40
8.0
 40
8.0
 40
8.0
 40
9.0
 40
9.0
 40
9.0
 40
9.0
 10
241.8283899902613
 20
729.1968376696656
 30
0.0
 10
241.8283899902613
 20
729.1968376696656
 30
0.0
 10
241.8283899902613
 20
728.2920979262992
 30
0.0
 10
241.8283899902613
 20
728.2920979262992
 30
0.0
 10
241.8283899902613
 20
728.2920979262992
 30
0.0
 10
232.4425784541467
 20
728.2920979262992
 30
0.0
 10
232.4425784541467
 20
728.2920979262992
 30
0.0
 10
232.4425784541467
 20
725.2371624569782
 30
0.0
 10
233.856090419604
 20
723.4852363890403
 30
0.0
 10
236.5426840086762
 20
723.4852363890403
 30
0.0
 10
238.1541797347682
 20
723.4852363890403
 30
0.0
 10
239.0865451191534
 20
723.9663829701155
 30
0.0
 10
240.1892686231493
 20
725.0691064741153
 30
0.0
 10
240.1892686231493
 20
725.0691064741153
 30
0.0
 10
241.5751549475914
 20
723.8535782692938
 30
0.0
 10
241.5751549475914
 20
723.8535782692938
 30
0.0
 10
240.1616429821293
 20
722.440066303832
 30
0.0
 10
238.8333100764793
 20
721.7033825433323
 30
0.0
 10
236.4851305898886
 20
721.7033825433323
 30
0.0
 10
232.7809925566237
 20
721.7033825433323
 30
0.0
 10
230.4074895657655
 20
723.9088295513279
 30
0.0
 10
230.4074895657655
 20
728.8284957894156
 30
0.0
 10
230.4074895657655
 20
733.352194506229
 30
0.0
 10
232.5830087959933
 20
735.9536090354957
 30
0.0
 10
236.1190908463915
 20
735.9536090354957
 30
0.0
 10
239.7380498198448
 20
735.9536090354957
 30
0.0
 10
241.8283899902613
 20
733.3798201472497
 30
0.0
 10
241.8283899902613
 20
729.1968376696656
 30
0.0
  0
SPLINE
  5
E8
330
C2
100
AcDbEntity
  8
Layer 1
 62
    40
370
    13
100
AcDbSpline
210
0.0
220
0.0
230
1.0
 70
    11
 71
     3
 72
    20
 73
    16
 74
     0
 42
0.0000000001
 43
0.0000000001
 12
1.0
 22
0.0
 32
0.0
 13
1.0
 23
0.0
 33
0.0
 40
0.0
 40
0.0
 40
0.0
 40
0.0
 40
1.0
 40
1.0
 40
1.0
 40
2.0
 40
2.0
 40
2.0
 40
3.0
 40
3.0
 40
3.0
 40
4.0
 40
4.0
 40
4.0
 40
5.0
 40
5.0
 40
5.0
 40
5.0
 10
232.8661716164353
 20
732.1366663014074
 30
0.0
 10
232.5277575139541
 20
731.4022846776613
 30
0.0
 10
232.500131872934
 20
730.9487637376033
 30
0.0
 10
232.4425784541467
 20
729.8184145925827
 30
0.0
 10
232.4425784541467
 20
729.8184145925827
 30
0.0
 10
239.8209267429006
 20
729.8184145925827
 30
0.0
 10
239.8209267429006
 20
729.8184145925827
 30
0.0
 10
239.7380498198448
 20
730.9487637376033
 30
0.0
 10
239.7081220420731
 20
731.4022846776613
 30
0.0
 10
239.3697079395954
 20
732.1366663014074
 30
0.0
 10
238.7757566576917
 20
733.4097479250237
 30
0.0
 10
237.6154797349043
 20
734.2293086085747
 30
0.0
 10
236.1190908463915
 20
734.2293086085747
 30
0.0
 10
234.6203998211226
 20
734.2293086085747
 30
0.0
 10
233.4601228983349
 20
733.4097479250237
 30
0.0
 10
232.8661716164353
 20
732.1366663014074
 30
0.0
  0
SPLINE
  5
E9
330
C2
100
AcDbEntity
  8
Layer 1
 62
    40
370
    13
100
AcDbSpline
210
0.0
220
0.0
230
1.0
 70
    11
 71
     3
 72
    53
 73
    49
 74
     0
 42
0.0000000001
 43
0.0000000001
 12
1.0
 22
0.0
 32
0.0
 13
1.0
 23
0.0
 33
0.0
 40
0.0
 40
0.0
 40
0.0
 40
0.0
 40
1.0
 40
1.0
 40
1.0
 40
2.0
 40
2.0
 40
2.0
 40
3.0
 40
3.0
 40
3.0
 40
4.0
 40
4.0
 40
4.0
 40
5.0
 40
5.0
 40
5.0
 40
6.0
 40
6.0
 40
6.0
 40
7.0
 40
7.0
 40
7.0
 40
8.0
 40
8.0
 40
8.0
 40
9.0
 40
9.0
 40
9.0
 40
10.0
 40
10.0
 40
10.0
 40
11.0
 40
11.0
 40
11.0
 40
12.0
 40
12.0
 40
12.0
 40
13.0
 40
13.0
 40
13.0
 40
14.0
 40
14.0
 40
14.0
 40
15.0
 40
15.0
 40
15.0
 40
16.0
 40
16.0
 40
16.0
 40
16.0
 10
248.5391186210602
 20
735.7832509158828
 30
0.0
 10
248.5391186210602
 20
735.7832509158828
 30
0.0
 10
251.5065728938263
 20
735.7832509158828
 30
0.0
 10
251.5065728938263
 20
735.7832509158828
 30
0.0
 10
251.5065728938263
 20
735.7832509158828
 30
0.0
 10
251.5065728938263
 20
734.2293086085747
 30
0.0
 10
251.5065728938263
 20
734.2293086085747
 30
0.0
 10
251.5065728938263
 20
734.2293086085747
 30
0.0
 10
248.5391186210602
 20
734.2293086085747
 30
0.0
 10
248.5391186210602
 20
734.2293086085747
 30
0.0
 10
248.5391186210602
 20
734.2293086085747
 30
0.0
 10
248.5391186210602
 20
725.6630577560194
 30
0.0
 10
248.5391186210602
 20
725.6630577560194
 30
0.0
 10
248.5391186210602
 20
724.362350491386
 30
0.0
 10
249.1330699029636
 20
723.6256667308863
 30
0.0
 10
250.4337771675982
 20
723.6256667308863
 30
0.0
 10
250.4337771675982
 20
723.6256667308863
 30
0.0
 10
251.5065728938263
 20
723.6256667308863
 30
0.0
 10
251.5065728938263
 20
723.6256667308863
 30
0.0
 10
251.5065728938263
 20
723.6256667308863
 30
0.0
 10
251.5065728938263
 20
721.8737406629484
 30
0.0
 10
251.5065728938263
 20
721.8737406629484
 30
0.0
 10
251.5065728938263
 20
721.8737406629484
 30
0.0
 10
250.0654352873485
 20
721.8737406629484
 30
0.0
 10
250.0654352873485
 20
721.8737406629484
 30
0.0
 10
247.6896301597342
 20
721.8737406629484
 30
0.0
 10
246.5040297326829
 20
723.5427898078318
 30
0.0
 10
246.5040297326829
 20
725.6055043372282
 30
0.0
 10
246.5040297326829
 20
725.6055043372282
 30
0.0
 10
246.5040297326829
 20
734.2293086085747
 30
0.0
 10
246.5040297326829
 20
734.2293086085747
 30
0.0
 10
246.5040297326829
 20
734.2293086085747
 30
0.0
 10
244.749801527992
 20
734.2293086085747
 30
0.0
 10
244.749801527992
 20
734.2293086085747
 30
0.0
 10
244.749801527992
 20
734.2293086085747
 30
0.0
 10
244.749801527992
 20
735.7832509158828
 30
0.0
 10
244.749801527992
 20
735.7832509158828
 30
0.0
 10
244.749801527992
 20
735.7832509158828
 30
0.0
 10
246.5040297326829
 20
735.7832509158828
 30
0.0
 10
246.5040297326829
 20
735.7832509158828
 30
0.0
 10
246.5040297326829
 20
735.7832509158828
 30
0.0
 10
246.5040297326829
 20
740.0537145900249
 30
0.0
 10
246.5040297326829
 20
740.0537145900249
 30
0.0
 10
246.5040297326829
 20
740.0537145900249
 30
0.0
 10
248.5391186210602
 20
740.0537145900249
 30
0.0
 10
248.5391186210602
 20
740.0537145900249
 30
0.0
 10
248.5391186210602
 20
740.0537145900249
 30
0.0
 10
248.5391186210602
 20
735.7832509158828
 30
0.0
 10
248.5391186210602
 20
735.7832509158828
 30
0.0
  0
SPLINE
  5
EA
330
C2
100
AcDbEntity
  8
Layer 1
 62
    40
370
    13
100
AcDbSpline
210
0.0
220
0.0
230
1.0
 70
    11
 71
     3
 72
    53
 73
    49
 74
     0
 42
0.0000000001
 43
0.0000000001
 12
1.0
 22
0.0
 32
0.0
 13
1.0
 23
0.0
 33
0.0
 40
0.0
 40
0.0
 40
0.0
 40
0.0
 40
1.0
 40
1.0
 40
1.0
 40
2.0
 40
2.0
 40
2.0
 40
3.0
 40
3.0
 40
3.0
 40
4.0
 40
4.0
 40
4.0
 40
5.0
 40
5.0
 40
5.0
 40
6.0
 40
6.0
 40
6.0
 40
7.0
 40
7.0
 40
7.0
 40
8.0
 40
8.0
 40
8.0
 40
9.0
 40
9.0
 40
9.0
 40
10.0
 40
10.0
 40
10.0
 40
11.0
 40
11.0
 40
11.0
 40
12.0
 40
12.0
 40
12.0
 40
13.0
 40
13.0
 40
13.0
 40
14.0
 40
14.0
 40
14.0
 40
15.0
 40
15.0
 40
15.0
 40
16.0
 40
16.0
 40
16.0
 40
16.0
 10
264.856663916128
 20
734.4549180102323
 30
0.0
 10
264.856663916128
 20
734.4549180102323
 30
0.0
 10
263.5283310104774
 20
733.1265851045823
 30
0.0
 10
263.5283310104774
 20
733.1265851045823
 30
0.0
 10
262.5384122073052
 20
733.8908945060989
 30
0.0
 10
261.2653305836903
 20
734.2293086085747
 30
0.0
 10
259.8241929772125
 20
734.2293086085747
 30
0.0
 10
257.7891040888359
 20
734.2293086085747
 30
0.0
 10
256.7140062258562
 20
733.3798201472497
 30
0.0
 10
256.7140062258562
 20
731.9386825407742
 30
0.0
 10
256.7140062258562
 20
730.6955286949322
 30
0.0
 10
257.4783156273745
 20
730.0739517720114
 30
0.0
 10
259.2026160542932
 20
729.9035936523911
 30
0.0
 10
259.2026160542932
 20
729.9035936523911
 30
0.0
 10
261.3781352845172
 20
729.7056098917575
 30
0.0
 10
261.3781352845172
 20
729.7056098917575
 30
0.0
 10
263.8114938309197
 20
729.4800004901069
 30
0.0
 10
265.4782408390474
 20
728.5752607467408
 30
0.0
 10
265.4782408390474
 20
725.9462205764611
 30
0.0
 10
265.4782408390474
 20
723.2596269873898
 30
0.0
 10
263.217542549016
 20
721.7033825433323
 30
0.0
 10
259.8241929772125
 20
721.7033825433323
 30
0.0
 10
257.4483878496024
 20
721.7033825433323
 30
0.0
 10
255.6112827218558
 20
722.2420825431949
 30
0.0
 10
254.1125916965908
 20
723.7108457906946
 30
0.0
 10
254.1125916965908
 20
723.7108457906946
 30
0.0
 10
255.470852380013
 20
725.0691064741153
 30
0.0
 10
255.470852380013
 20
725.0691064741153
 30
0.0
 10
256.5436481062411
 20
723.9387573290984
 30
0.0
 10
258.0699647725256
 20
723.4576107480234
 30
0.0
 10
259.7965673361973
 20
723.4576107480234
 30
0.0
 10
262.1148190450159
 20
723.4576107480234
 30
0.0
 10
263.4984032327058
 20
724.2771714315779
 30
0.0
 10
263.4984032327058
 20
725.9162927986903
 30
0.0
 10
263.4984032327058
 20
727.1617487812861
 30
0.0
 10
262.8215750277465
 20
727.8109513452242
 30
0.0
 10
261.1801515238829
 20
727.9513816870699
 30
0.0
 10
261.1801515238829
 20
727.9513816870699
 30
0.0
 10
258.8918275928318
 20
728.1493654477032
 30
0.0
 10
258.8918275928318
 20
728.1493654477032
 30
0.0
 10
256.1776083627398
 20
728.3772769861075
 30
0.0
 10
254.7341686195143
 20
729.5651795499153
 30
0.0
 10
254.7341686195143
 20
731.8834312587366
 30
0.0
 10
254.7341686195143
 20
734.4272923692118
 30
0.0
 10
256.8544365676984
 20
735.9536090354957
 30
0.0
 10
259.8518186182324
 20
735.9536090354957
 30
0.0
 10
261.8592818655937
 20
735.9536090354957
 30
0.0
 10
263.5835822925131
 20
735.4724624544205
 30
0.0
 10
264.856663916128
 20
734.4549180102323
 30
0.0
  0
ENDBLK
  5
C5
330
C2
100
AcDbEntity
  8
0
100
AcDbBlockEnd
  0
BLOCK
  5
ED
330
EB
100
AcDbEntity
  8
0
100
AcDbBlockBegin
  2
block 5
 70
     0
 10
0.0
 20
0.0
 30
0.0
  3
block 5
  1

  0
SPLINE
  5
EF
330
EB
100
AcDbEntity
  8
Layer 1
 62
    40
370
    13
100
AcDbSpline
210
0.0
220
0.0
230
1.0
 70
    11
 71
     3
 72
    26
 73
    22
 74
     0
 42
0.0000000001
 43
0.0000000001
 12
1.0
 22
0.0
 32
0.0
 13
1.0
 23
0.0
 33
0.0
 40
0.0
 40
0.0
 40
0.0
 40
0.0
 40
1.0
 40
1.0
 40
1.0
 40
2.0
 40
2.0
 40
2.0
 40
3.0
 40
3.0
 40
3.0
 40
4.0
 40
4.0
 40
4.0
 40
5.0
 40
5.0
 40
5.0
 40
6.0
 40
6.0
 40
6.0
 40
7.0
 40
7.0
 40
7.0
 40
7.0
 10
29.11846380565441
 20
711.0572006143365
 30
0.0
 10
32.66140000268535
 20
711.0572006143365
 30
0.0
 10
35.11861435753979
 20
709.0285561378471
 30
0.0
 10
35.11861435753979
 20
705.6284191486798
 30
0.0
 10
35.11861435753979
 20
703.4853975020801
 30
0.0
 10
33.83290472244455
 20
701.799540026373
 30
0.0
 10
32.11862520898423
 20
701.1709823550892
 30
0.0
 10
34.06148680789088
 20
700.4566418062227
 30
0.0
 10
35.43297932056884
 20
698.7709565852899
 30
0.0
 10
35.43297932056884
 20
696.3421642681888
 30
0.0
 10
35.43297932056884
 20
692.65625660852
 30
0.0
 10
32.97576496571439
 20
690.7133950096134
 30
0.0
 10
29.37564018362831
 20
690.7133950096134
 30
0.0
 10
29.37564018362831
 20
690.7133950096134
 30
0.0
 10
21.46087781581534
 20
690.7133950096134
 30
0.0
 10
21.46087781581534
 20
690.7133950096134
 30
0.0
 10
21.46087781581534
 20
690.7133950096134
 30
0.0
 10
21.46087781581534
 20
711.0572006143365
 30
0.0
 10
21.46087781581534
 20
711.0572006143365
 30
0.0
 10
21.46087781581534
 20
711.0572006143365
 30
0.0
 10
29.11846380565441
 20
711.0572006143365
 30
0.0
 10
29.11846380565441
 20
711.0572006143365
 30
0.0
  0
SPLINE
  5
F0
330
EB
100
AcDbEntity
  8
Layer 1
 62
    40
370
    13
100
AcDbSpline
210
0.0
220
0.0
230
1.0
 70
    11
 71
     3
 72
    20
 73
    16
 74
     0
 42
0.0000000001
 43
0.0000000001
 12
1.0
 22
0.0
 32
0.0
 13
1.0
 23
0.0
 33
0.0
 40
0.0
 40
0.0
 40
0.0
 40
0.0
 40
1.0
 40
1.0
 40
1.0
 40
2.0
 40
2.0
 40
2.0
 40
3.0
 40
3.0
 40
3.0
 40
4.0
 40
4.0
 40
4.0
 40
5.0
 40
5.0
 40
5.0
 40
5.0
 10
23.63249375494257
 20
709.1141667606555
 30
0.0
 10
23.63249375494257
 20
709.1141667606555
 30
0.0
 10
23.63249375494257
 20
702.056716404347
 30
0.0
 10
23.63249375494257
 20
702.056716404347
 30
0.0
 10
23.63249375494257
 20
702.056716404347
 30
0.0
 10
28.94689805048897
 20
702.056716404347
 30
0.0
 10
28.94689805048897
 20
702.056716404347
 30
0.0
 10
31.20429686719893
 20
702.056716404347
 30
0.0
 10
32.94717067318682
 20
703.171032539051
 30
0.0
 10
32.94717067318682
 20
705.5998248561522
 30
0.0
 10
32.94717067318682
 20
708.0284449184791
 30
0.0
 10
31.20429686719893
 20
709.1141667606555
 30
0.0
 10
28.94689805048897
 20
709.1141667606555
 30
0.0
 10
28.94689805048897
 20
709.1141667606555
 30
0.0
 10
23.63249375494257
 20
709.1141667606555
 30
0.0
 10
23.63249375494257
 20
709.1141667606555
 30
0.0
  0
SPLINE
  5
F1
330
EB
100
AcDbEntity
  8
Layer 1
 62
    40
370
    13
100
AcDbSpline
210
0.0
220
0.0
230
1.0
 70
    11
 71
     3
 72
    20
 73
    16
 74
     0
 42
0.0000000001
 43
0.0000000001
 12
1.0
 22
0.0
 32
0.0
 13
1.0
 23
0.0
 33
0.0
 40
0.0
 40
0.0
 40
0.0
 40
0.0
 40
1.0
 40
1.0
 40
1.0
 40
2.0
 40
2.0
 40
2.0
 40
3.0
 40
3.0
 40
3.0
 40
4.0
 40
4.0
 40
4.0
 40
5.0
 40
5.0
 40
5.0
 40
5.0
 10
23.63249375494257
 20
700.1138548054403
 30
0.0
 10
23.63249375494257
 20
700.1138548054403
 30
0.0
 10
23.63249375494257
 20
692.65625660852
 30
0.0
 10
23.63249375494257
 20
692.65625660852
 30
0.0
 10
23.63249375494257
 20
692.65625660852
 30
0.0
 10
29.1754801359353
 20
692.65625660852
 30
0.0
 10
29.1754801359353
 20
692.65625660852
 30
0.0
 10
31.68988307584489
 20
692.65625660852
 30
0.0
 10
33.2613633814416
 20
694.1135319987807
 30
0.0
 10
33.2613633814416
 20
696.399352853244
 30
0.0
 10
33.2613633814416
 20
698.6851737077072
 30
0.0
 10
31.68988307584489
 20
700.1138548054403
 30
0.0
 10
29.1754801359353
 20
700.1138548054403
 30
0.0
 10
29.1754801359353
 20
700.1138548054403
 30
0.0
 10
23.63249375494257
 20
700.1138548054403
 30
0.0
 10
23.63249375494257
 20
700.1138548054403
 30
0.0
  0
SPLINE
  5
F2
330
EB
100
AcDbEntity
  8
Layer 1
 62
    40
370
    13
100
AcDbSpline
210
0.0
220
0.0
230
1.0
 70
    11
 71
     3
 72
    65
 73
    61
 74
     0
 42
0.0000000001
 43
0.0000000001
 12
1.0
 22
0.0
 32
0.0
 13
1.0
 23
0.0
 33
0.0
 40
0.0
 40
0.0
 40
0.0
 40
0.0
 40
1.0
 40
1.0
 40
1.0
 40
2.0
 40
2.0
 40
2.0
 40
3.0
 40
3.0
 40
3.0
 40
4.0
 40
4.0
 40
4.0
 40
5.0
 40
5.0
 40
5.0
 40
6.0
 40
6.0
 40
6.0
 40
7.0
 40
7.0
 40
7.0
 40
8.0
 40
8.0
 40
8.0
 40
9.0
 40
9.0
 40
9.0
 40
10.0
 40
10.0
 40
10.0
 40
11.0
 40
11.0
 40
11.0
 40
12.0
 40
12.0
 40
12.0
 40
13.0
 40
13.0
 40
13.0
 40
14.0
 40
14.0
 40
14.0
 40
15.0
 40
15.0
 40
15.0
 40
16.0
 40
16.0
 40
16.0
 40
17.0
 40
17.0
 40
17.0
 40
18.0
 40
18.0
 40
18.0
 40
19.0
 40
19.0
 40
19.0
 40
20.0
 40
20.0
 40
20.0
 40
20.0
 10
51.77823485033669
 20
708.9999618453195
 30
0.0
 10
51.77823485033669
 20
708.9999618453195
 30
0.0
 10
50.37832029990543
 20
707.599875040114
 30
0.0
 10
50.37832029990543
 20
707.599875040114
 30
0.0
 10
49.14962699509107
 20
708.7713797598732
 30
0.0
 10
47.74954018988554
 20
709.3713431386294
 30
0.0
 10
45.63511283581344
 20
709.3713431386294
 30
0.0
 10
42.89212781045752
 20
709.3713431386294
 30
0.0
 10
41.32064750486082
 20
707.8570514180878
 30
0.0
 10
41.32064750486082
 20
705.5712305636246
 30
0.0
 10
41.32064750486082
 20
704.5711193442565
 30
0.0
 10
41.60641817536229
 20
703.742573880054
 30
0.0
 10
42.23497584664612
 20
703.1996268315786
 30
0.0
 10
42.86353351792995
 20
702.6568520378775
 30
0.0
 10
43.8350504447704
 20
702.3138927823209
 30
0.0
 10
44.89235024919358
 20
702.1424992819296
 30
0.0
 10
44.89235024919358
 20
702.1424992819296
 30
0.0
 10
47.2637817264653
 20
701.7711179886197
 30
0.0
 10
47.2637817264653
 20
701.7711179886197
 30
0.0
 10
49.14962699509107
 20
701.4853473181183
 30
0.0
 10
50.0353610443488
 20
701.1423880625616
 30
0.0
 10
50.94968938613411
 20
700.3138425983591
 30
0.0
 10
52.03541122831059
 20
699.3709199640462
 30
0.0
 10
52.66414115436869
 20
697.9994274513682
 30
0.0
 10
52.66414115436869
 20
696.3135699756613
 30
0.0
 10
52.66414115436869
 20
692.7420394861027
 30
0.0
 10
49.89256183648519
 20
690.5420015092221
 30
0.0
 10
45.63511283581344
 20
690.5420015092221
 30
0.0
 10
42.60652939473032
 20
690.5420015092221
 30
0.0
 10
40.57771266346668
 20
691.3133583883696
 30
0.0
 10
38.69203964961519
 20
693.2277979495229
 30
0.0
 10
38.69203964961519
 20
693.2277979495229
 30
0.0
 10
40.1491427851016
 20
694.6850733397836
 30
0.0
 10
40.1491427851016
 20
694.6850733397836
 30
0.0
 10
41.83500026080861
 20
692.9992158640766
 30
0.0
 10
43.40648056640533
 20
692.4848631081288
 30
0.0
 10
45.6923014208686
 20
692.4848631081288
 30
0.0
 10
48.69246282419842
 20
692.4848631081288
 30
0.0
 10
50.52111950776903
 20
693.8563556208068
 30
0.0
 10
50.52111950776903
 20
696.2565536453803
 30
0.0
 10
50.52111950776903
 20
697.3422754875568
 30
0.0
 10
50.20675454473998
 20
698.199415244287
 30
0.0
 10
49.521008288401
 20
698.7995508778175
 30
0.0
 10
48.89245061711717
 20
699.3709199640462
 30
0.0
 10
48.32090927611422
 20
699.570907756965
 30
0.0
 10
46.8638061406278
 20
699.7994898424113
 30
0.0
 10
46.8638061406278
 20
699.7994898424113
 30
0.0
 10
44.49220240858181
 20
700.1424490979679
 30
0.0
 10
44.49220240858181
 20
700.1424490979679
 30
0.0
 10
42.89212781045752
 20
700.3996254759418
 30
0.0
 10
41.69220105294501
 20
700.8852116845877
 30
0.0
 10
40.7778727111597
 20
701.685335111037
 30
0.0
 10
39.7491671992641
 20
702.5996634528224
 30
0.0
 10
39.20622015078872
 20
703.8569510501643
 30
0.0
 10
39.20622015078872
 20
705.5140419785695
 30
0.0
 10
39.20622015078872
 20
708.9713675527919
 30
0.0
 10
41.69220105294501
 20
711.2285941147276
 30
0.0
 10
45.72089571339617
 20
711.2285941147276
 30
0.0
 10
48.32090927611422
 20
711.2285941147276
 30
0.0
 10
50.0353610443488
 20
710.5428478583887
 30
0.0
 10
51.77823485033669
 20
708.9999618453195
 30
0.0
  0
POLYLINE
  5
F3
330
EB
100
AcDbEntity
  8
Layer 1
 62
    40
370
    13
100
AcDb2dPolyline
 66
     1
 10
0.0
 20
0.0
 30
0.0
  0
VERTEX
  5
F4
330
F3
100
AcDbEntity
  8
Layer 1
 62
    40
370
    13
100
AcDbVertex
100
AcDb2dVertex
 10
63.52308212387618
 20
693.9421384983895
 30
0.0
  0
VERTEX
  5
F5
330
F3
100
AcDbEntity
  8
Layer 1
 62
    40
370
    13
100
AcDbVertex
100
AcDb2dVertex
 10
55.40833196314445
 20
693.9421384983895
 30
0.0
  0
VERTEX
  5
F6
330
F3
100
AcDbEntity
  8
Layer 1
 62
    40
370
    13
100
AcDbVertex
100
AcDb2dVertex
 10
55.40833196314445
 20
695.7993894744877
 30
0.0
  0
VERTEX
  5
F7
330
F3
100
AcDbEntity
  8
Layer 1
 62
    40
370
    13
100
AcDbVertex
100
AcDb2dVertex
 10
62.75155298995448
 20
711.0572006143365
 30
0.0
  0
VERTEX
  5
F8
330
F3
100
AcDbEntity
  8
Layer 1
 62
    40
370
    13
100
AcDbVertex
100
AcDb2dVertex
 10
64.95159096683503
 20
711.0572006143365
 30
0.0
  0
VERTEX
  5
F9
330
F3
100
AcDbEntity
  8
Layer 1
 62
    40
370
    13
100
AcDbVertex
100
AcDb2dVertex
 10
57.60836994002499
 20
695.7993894744877
 30
0.0
  0
VERTEX
  5
FA
330
F3
100
AcDbEntity
  8
Layer 1
 62
    40
370
    13
100
AcDbVertex
100
AcDb2dVertex
 10
63.52308212387618
 20
695.7993894744877
 30
0.0
  0
VERTEX
  5
FB
330
F3
100
AcDbEntity
  8
Layer 1
 62
    40
370
    13
100
AcDbVertex
100
AcDb2dVertex
 10
63.52308212387618
 20
701.571130195701
 30
0.0
  0
VERTEX
  5
FC
330
F3
100
AcDbEntity
  8
Layer 1
 62
    40
370
    13
100
AcDbVertex
100
AcDb2dVertex
 10
65.55172660036554
 20
701.571130195701
 30
0.0
  0
VERTEX
  5
FD
330
F3
100
AcDbEntity
  8
Layer 1
 62
    40
370
    13
100
AcDbVertex
100
AcDb2dVertex
 10
65.55172660036554
 20
695.7993894744877
 30
0.0
  0
VERTEX
  5
FE
330
F3
100
AcDbEntity
  8
Layer 1
 62
    40
370
    13
100
AcDbVertex
100
AcDb2dVertex
 10
68.03753524774757
 20
695.7993894744877
 30
0.0
  0
VERTEX
  5
FF
330
F3
100
AcDbEntity
  8
Layer 1
 62
    40
370
    13
100
AcDbVertex
100
AcDb2dVertex
 10
68.03753524774757
 20
693.9421384983895
 30
0.0
  0
VERTEX
  5
100
330
F3
100
AcDbEntity
  8
Layer 1
 62
    40
370
    13
100
AcDbVertex
100
AcDb2dVertex
 10
65.55172660036554
 20
693.9421384983895
 30
0.0
  0
VERTEX
  5
101
330
F3
100
AcDbEntity
  8
Layer 1
 62
    40
370
    13
100
AcDbVertex
100
AcDb2dVertex
 10
65.55172660036554
 20
690.7133950096134
 30
0.0
  0
VERTEX
  5
102
330
F3
100
AcDbEntity
  8
Layer 1
 62
    40
370
    13
100
AcDbVertex
100
AcDb2dVertex
 10
63.52308212387618
 20
690.7133950096134
 30
0.0
  0
VERTEX
  5
103
330
F3
100
AcDbEntity
  8
Layer 1
 62
    40
370
    13
100
AcDbVertex
100
AcDb2dVertex
 10
63.52308212387618
 20
693.9421384983895
 30
0.0
  0
SEQEND
  5
104
330
F3
100
AcDbEntity
  8
Layer 1
 62
    40
370
    13
  0
SPLINE
  5
105
330
EB
100
AcDbEntity
  8
Layer 1
 62
    40
370
    13
100
AcDbSpline
210
0.0
220
0.0
230
1.0
 70
    11
 71
     3
 72
    29
 73
    25
 74
     0
 42
0.0000000001
 43
0.0000000001
 12
1.0
 22
0.0
 32
0.0
 13
1.0
 23
0.0
 33
0.0
 40
0.0
 40
0.0
 40
0.0
 40
0.0
 40
1.0
 40
1.0
 40
1.0
 40
2.0
 40
2.0
 40
2.0
 40
3.0
 40
3.0
 40
3.0
 40
4.0
 40
4.0
 40
4.0
 40
5.0
 40
5.0
 40
5.0
 40
6.0
 40
6.0
 40
6.0
 40
7.0
 40
7.0
 40
7.0
 40
8.0
 40
8.0
 40
8.0
 40
8.0
 10
70.6385823391112
 20
696.3135699756613
 30
0.0
 10
70.6385823391112
 20
698.6851737077072
 30
0.0
 10
71.98148055926158
 20
700.2852483058315
 30
0.0
 10
73.6957600727219
 20
701.2567652326719
 30
0.0
 10
72.09568547459762
 20
702.1710935744572
 30
0.0
 10
71.03855792494869
 20
703.6567910024712
 30
0.0
 10
71.03855792494869
 20
705.7712183565434
 30
0.0
 10
71.03855792494869
 20
708.9427732602643
 30
0.0
 10
73.41016165699469
 20
711.2285941147276
 30
0.0
 10
76.63873289099656
 20
711.2285941147276
 30
0.0
 10
79.86747637977271
 20
711.2285941147276
 30
0.0
 10
82.23908011181871
 20
708.9427732602643
 30
0.0
 10
82.23908011181871
 20
705.7712183565434
 30
0.0
 10
82.23908011181871
 20
703.6567910024712
 30
0.0
 10
81.2103745999231
 20
702.1710935744572
 30
0.0
 10
79.61030000179882
 20
701.2567652326719
 30
0.0
 10
81.3247517700334
 20
700.2852483058315
 30
0.0
 10
82.63905569765622
 20
698.6851737077072
 30
0.0
 10
82.63905569765622
 20
696.3135699756613
 30
0.0
 10
82.63905569765622
 20
692.8850109487406
 30
0.0
 10
80.01044784241058
 20
690.5420015092221
 30
0.0
 10
76.63873289099656
 20
690.5420015092221
 30
0.0
 10
73.26719019435681
 20
690.5420015092221
 30
0.0
 10
70.6385823391112
 20
692.8850109487406
 30
0.0
 10
70.6385823391112
 20
696.3135699756613
 30
0.0
  0
SPLINE
  5
106
330
EB
100
AcDbEntity
  8
Layer 1
 62
    40
370
    13
100
AcDbSpline
210
0.0
220
0.0
230
1.0
 70
    11
 71
     3
 72
    17
 73
    13
 74
     0
 42
0.0000000001
 43
0.0000000001
 12
1.0
 22
0.0
 32
0.0
 13
1.0
 23
0.0
 33
0.0
 40
0.0
 40
0.0
 40
0.0
 40
0.0
 40
1.0
 40
1.0
 40
1.0
 40
2.0
 40
2.0
 40
2.0
 40
3.0
 40
3.0
 40
3.0
 40
4.0
 40
4.0
 40
4.0
 40
4.0
 10
80.58181692863927
 20
696.3421642681888
 30
0.0
 10
80.58181692863927
 20
698.5993908301244
 30
0.0
 10
78.86753741517896
 20
700.3138425983591
 30
0.0
 10
76.63873289099656
 20
700.3138425983591
 30
0.0
 10
74.41010062158846
 20
700.3138425983591
 30
0.0
 10
72.69582110812813
 20
698.5993908301244
 30
0.0
 10
72.69582110812813
 20
696.3421642681888
 30
0.0
 10
72.69582110812813
 20
694.0849377062531
 30
0.0
 10
74.41010062158846
 20
692.3706581927928
 30
0.0
 10
76.63873289099656
 20
692.3706581927928
 30
0.0
 10
78.86753741517896
 20
692.3706581927928
 30
0.0
 10
80.58181692863927
 20
694.0849377062531
 30
0.0
 10
80.58181692863927
 20
696.3421642681888
 30
0.0
  0
SPLINE
  5
107
330
EB
100
AcDbEntity
  8
Layer 1
 62
    40
370
    13
100
AcDbSpline
210
0.0
220
0.0
230
1.0
 70
    11
 71
     3
 72
    17
 73
    13
 74
     0
 42
0.0000000001
 43
0.0000000001
 12
1.0
 22
0.0
 32
0.0
 13
1.0
 23
0.0
 33
0.0
 40
0.0
 40
0.0
 40
0.0
 40
0.0
 40
1.0
 40
1.0
 40
1.0
 40
2.0
 40
2.0
 40
2.0
 40
3.0
 40
3.0
 40
3.0
 40
4.0
 40
4.0
 40
4.0
 40
4.0
 10
80.18184134280176
 20
705.7426240640158
 30
0.0
 10
80.18184134280176
 20
707.8570514180878
 30
0.0
 10
78.72456595254108
 20
709.399937431157
 30
0.0
 10
76.63873289099656
 20
709.399937431157
 30
0.0
 10
74.55289982945206
 20
709.399937431157
 30
0.0
 10
73.09579669396564
 20
707.8570514180878
 30
0.0
 10
73.09579669396564
 20
705.7426240640158
 30
0.0
 10
73.09579669396564
 20
703.5997746721904
 30
0.0
 10
74.55289982945206
 20
702.1139049894022
 30
0.0
 10
76.63873289099656
 20
702.1139049894022
 30
0.0
 10
78.72456595254108
 20
702.1139049894022
 30
0.0
 10
80.18184134280176
 20
703.5997746721904
 30
0.0
 10
80.18184134280176
 20
705.7426240640158
 30
0.0
  0
ENDBLK
  5
EE
330
EB
100
AcDbEntity
  8
0
100
AcDbBlockEnd
  0
BLOCK
  5
10A
330
108
100
AcDbEntity
  8
0
100
AcDbBlockBegin
  2
block 6
 70
     0
 10
0.0
 20
0.0
 30
0.0
  3
block 6
  1

  0
POLYLINE
  5
10C
330
108
100
AcDbEntity
  8
Layer 1
 62
    40
370
    13
100
AcDb2dPolyline
 66
     1
 10
0.0
 20
0.0
 30
0.0
  0
VERTEX
  5
10D
330
10C
100
AcDbEntity
  8
Layer 1
 62
    40
370
    13
100
AcDbVertex
100
AcDb2dVertex
 10
18.85352930960741
 20
322.0386613904925
 30
0.0
  0
VERTEX
  5
10E
330
10C
100
AcDbEntity
  8
Layer 1
 62
    40
370
    13
100
AcDbVertex
100
AcDb2dVertex
 10
293.8536470726174
 20
322.0386613904925
 30
0.0
  0
VERTEX
  5
10F
330
10C
100
AcDbEntity
  8
Layer 1
 62
    40
370
    13
100
AcDbVertex
100
AcDb2dVertex
 10
293.8536470726174
 20
397.0388638050107
 30
0.0
  0
VERTEX
  5
110
330
10C
100
AcDbEntity
  8
Layer 1
 62
    40
370
    13
100
AcDbVertex
100
AcDb2dVertex
 10
93.8537317241256
 20
397.0388638050107
 30
0.0
  0
VERTEX
  5
111
330
10C
100
AcDbEntity
  8
Layer 1
 62
    40
370
    13
100
AcDbVertex
100
AcDb2dVertex
 10
93.8537317241256
 20
597.038800685349
 30
0.0
  0
VERTEX
  5
112
330
10C
100
AcDbEntity
  8
Layer 1
 62
    40
370
    13
100
AcDbVertex
100
AcDb2dVertex
 10
18.85352930960741
 20
597.038800685349
 30
0.0
  0
VERTEX
  5
113
330
10C
100
AcDbEntity
  8
Layer 1
 62
    40
370
    13
100
AcDbVertex
100
AcDb2dVertex
 10
18.85352930960741
 20
322.0386613904925
 30
0.0
  0
SEQEND
  5
114
330
10C
100
AcDbEntity
  8
Layer 1
 62
    40
370
    13
  0
POLYLINE
  5
115
330
108
100
AcDbEntity
  8
Layer 1
 62
    40
370
    13
100
AcDb2dPolyline
 66
     1
 10
0.0
 20
0.0
 30
0.0
  0
VERTEX
  5
116
330
115
100
AcDbEntity
  8
Layer 1
 62
    40
370
    13
100
AcDbVertex
100
AcDb2dVertex
 10
56.35380277164077
 20
567.0386077539384
 30
0.0
  0
VERTEX
  5
117
330
115
100
AcDbEntity
  8
Layer 1
 62
    40
370
    13
100
AcDbVertex
100
AcDb2dVertex
 10
57.71941709014702
 20
567.1733540511052
 30
0.0
  0
VERTEX
  5
118
330
115
100
AcDbEntity
  8
Layer 1
 62
    40
370
    13
100
AcDbVertex
100
AcDb2dVertex
 10
59.03245063880965
 20
567.5716501528937
 30
0.0
  0
VERTEX
  5
119
330
115
100
AcDbEntity
  8
Layer 1
 62
    40
370
    13
100
AcDbVertex
100
AcDb2dVertex
 10
60.24247583246331
 20
568.2186390850236
 30
0.0
  0
VERTEX
  5
11A
330
115
100
AcDbEntity
  8
Layer 1
 62
    40
370
    13
100
AcDbVertex
100
AcDb2dVertex
 10
61.30328532791208
 20
569.0889563319848
 30
0.0
  0
VERTEX
  5
11B
330
115
100
AcDbEntity
  8
Layer 1
 62
    40
370
    13
100
AcDbVertex
100
AcDb2dVertex
 10
62.17392555257506
 20
570.1497442955869
 30
0.0
  0
VERTEX
  5
11C
330
115
100
AcDbEntity
  8
Layer 1
 62
    40
370
    13
100
AcDbVertex
100
AcDb2dVertex
 10
62.82093601655176
 20
571.3601355306358
 30
0.0
  0
VERTEX
  5
11D
330
115
100
AcDbEntity
  8
Layer 1
 62
    40
370
    13
100
AcDbVertex
100
AcDb2dVertex
 10
63.21921058649342
 20
572.6731475474517
 30
0.0
  0
VERTEX
  5
11E
330
115
100
AcDbEntity
  8
Layer 1
 62
    40
370
    13
100
AcDbVertex
100
AcDb2dVertex
 10
63.35361237411173
 20
574.0387833978047
 30
0.0
  0
VERTEX
  5
11F
330
115
100
AcDbEntity
  8
Layer 1
 62
    40
370
    13
100
AcDbVertex
100
AcDb2dVertex
 10
63.21921058649342
 20
575.4043761844641
 30
0.0
  0
VERTEX
  5
120
330
115
100
AcDbEntity
  8
Layer 1
 62
    40
370
    13
100
AcDbVertex
100
AcDb2dVertex
 10
62.82093601655176
 20
576.71738820128
 30
0.0
  0
VERTEX
  5
121
330
115
100
AcDbEntity
  8
Layer 1
 62
    40
370
    13
100
AcDbVertex
100
AcDb2dVertex
 10
62.17392555257506
 20
577.9277794363289
 30
0.0
  0
VERTEX
  5
122
330
115
100
AcDbEntity
  8
Layer 1
 62
    40
370
    13
100
AcDbVertex
100
AcDb2dVertex
 10
61.30328532791208
 20
578.9886104636246
 30
0.0
  0
VERTEX
  5
123
330
115
100
AcDbEntity
  8
Layer 1
 62
    40
370
    13
100
AcDbVertex
100
AcDb2dVertex
 10
60.24247583246331
 20
579.8592291564407
 30
0.0
  0
VERTEX
  5
124
330
115
100
AcDbEntity
  8
Layer 1
 62
    40
370
    13
100
AcDbVertex
100
AcDb2dVertex
 10
59.03245063880965
 20
580.5058735790221
 30
0.0
  0
VERTEX
  5
125
330
115
100
AcDbEntity
  8
Layer 1
 62
    40
370
    13
100
AcDbVertex
100
AcDb2dVertex
 10
57.71941709014702
 20
580.9041696808106
 30
0.0
  0
VERTEX
  5
126
330
115
100
AcDbEntity
  8
Layer 1
 62
    40
370
    13
100
AcDbVertex
100
AcDb2dVertex
 10
56.35380277164077
 20
581.0389159779774
 30
0.0
  0
VERTEX
  5
127
330
115
100
AcDbEntity
  8
Layer 1
 62
    40
370
    13
100
AcDbVertex
100
AcDb2dVertex
 10
54.98784394358599
 20
580.9041696808106
 30
0.0
  0
VERTEX
  5
128
330
115
100
AcDbEntity
  8
Layer 1
 62
    40
370
    13
100
AcDbVertex
100
AcDb2dVertex
 10
53.67481039492336
 20
580.5058735790221
 30
0.0
  0
VERTEX
  5
129
330
115
100
AcDbEntity
  8
Layer 1
 62
    40
370
    13
100
AcDbVertex
100
AcDb2dVertex
 10
52.46478520126971
 20
579.8592291564407
 30
0.0
  0
VERTEX
  5
12A
330
115
100
AcDbEntity
  8
Layer 1
 62
    40
370
    13
100
AcDbVertex
100
AcDb2dVertex
 10
51.40397570582093
 20
578.9886104636246
 30
0.0
  0
VERTEX
  5
12B
330
115
100
AcDbEntity
  8
Layer 1
 62
    40
370
    13
100
AcDbVertex
100
AcDb2dVertex
 10
50.53331394931116
 20
577.9277794363289
 30
0.0
  0
VERTEX
  5
12C
330
115
100
AcDbEntity
  8
Layer 1
 62
    40
370
    13
100
AcDbVertex
100
AcDb2dVertex
 10
49.88632501718125
 20
576.71738820128
 30
0.0
  0
VERTEX
  5
12D
330
115
100
AcDbEntity
  8
Layer 1
 62
    40
370
    13
100
AcDbVertex
100
AcDb2dVertex
 10
49.48805044723959
 20
575.4043761844641
 30
0.0
  0
VERTEX
  5
12E
330
115
100
AcDbEntity
  8
Layer 1
 62
    40
370
    13
100
AcDbVertex
100
AcDb2dVertex
 10
49.35362712777449
 20
574.0387833978047
 30
0.0
  0
VERTEX
  5
12F
330
115
100
AcDbEntity
  8
Layer 1
 62
    40
370
    13
100
AcDbVertex
100
AcDb2dVertex
 10
49.48805044723959
 20
572.6731475474517
 30
0.0
  0
VERTEX
  5
130
330
115
100
AcDbEntity
  8
Layer 1
 62
    40
370
    13
100
AcDbVertex
100
AcDb2dVertex
 10
49.88632501718125
 20
571.3601355306358
 30
0.0
  0
VERTEX
  5
131
330
115
100
AcDbEntity
  8
Layer 1
 62
    40
370
    13
100
AcDbVertex
100
AcDb2dVertex
 10
50.53331394931116
 20
570.1497442955869
 30
0.0
  0
VERTEX
  5
132
330
115
100
AcDbEntity
  8
Layer 1
 62
    40
370
    13
100
AcDbVertex
100
AcDb2dVertex
 10
51.40397570582093
 20
569.0889563319848
 30
0.0
  0
VERTEX
  5
133
330
115
100
AcDbEntity
  8
Layer 1
 62
    40
370
    13
100
AcDbVertex
100
AcDb2dVertex
 10
52.46478520126971
 20
568.2186390850236
 30
0.0
  0
VERTEX
  5
134
330
115
100
AcDbEntity
  8
Layer 1
 62
    40
370
    13
100
AcDbVertex
100
AcDb2dVertex
 10
53.67481039492336
 20
567.5716501528937
 30
0.0
  0
VERTEX
  5
135
330
115
100
AcDbEntity
  8
Layer 1
 62
    40
370
    13
100
AcDbVertex
100
AcDb2dVertex
 10
54.98784394358599
 20
567.1733540511052
 30
0.0
  0
VERTEX
  5
136
330
115
100
AcDbEntity
  8
Layer 1
 62
    40
370
    13
100
AcDbVertex
100
AcDb2dVertex
 10
56.35380277164077
 20
567.0386077539384
 30
0.0
  0
SEQEND
  5
137
330
115
100
AcDbEntity
  8
Layer 1
 62
    40
370
    13
  0
POLYLINE
  5
138
330
108
100
AcDbEntity
  8
Layer 1
 62
    40
370
    13
100
AcDb2dPolyline
 66
     1
 10
0.0
 20
0.0
 30
0.0
  0
VERTEX
  5
139
330
138
100
AcDbEntity
  8
Layer 1
 62
    40
370
    13
100
AcDbVertex
100
AcDb2dVertex
 10
56.35380277164077
 20
495.0387820612179
 30
0.0
  0
VERTEX
  5
13A
330
138
100
AcDbEntity
  8
Layer 1
 62
    40
370
    13
100
AcDbVertex
100
AcDb2dVertex
 10
57.71941709014702
 20
495.1731838488362
 30
0.0
  0
VERTEX
  5
13B
330
138
100
AcDbEntity
  8
Layer 1
 62
    40
370
    13
100
AcDbVertex
100
AcDb2dVertex
 10
59.03245063880965
 20
495.5718244601732
 30
0.0
  0
VERTEX
  5
13C
330
138
100
AcDbEntity
  8
Layer 1
 62
    40
370
    13
100
AcDbVertex
100
AcDb2dVertex
 10
60.24247583246331
 20
496.2184688827546
 30
0.0
  0
VERTEX
  5
13D
330
138
100
AcDbEntity
  8
Layer 1
 62
    40
370
    13
100
AcDbVertex
100
AcDb2dVertex
 10
61.30328532791208
 20
497.0890875755708
 30
0.0
  0
VERTEX
  5
13E
330
138
100
AcDbEntity
  8
Layer 1
 62
    40
370
    13
100
AcDbVertex
100
AcDb2dVertex
 10
62.17392555257506
 20
498.1499186028663
 30
0.0
  0
VERTEX
  5
13F
330
138
100
AcDbEntity
  8
Layer 1
 62
    40
370
    13
100
AcDbVertex
100
AcDb2dVertex
 10
62.82093601655176
 20
499.3599222646732
 30
0.0
  0
VERTEX
  5
140
330
138
100
AcDbEntity
  8
Layer 1
 62
    40
370
    13
100
AcDbVertex
100
AcDb2dVertex
 10
63.21921058649342
 20
500.6729773451826
 30
0.0
  0
VERTEX
  5
141
330
138
100
AcDbEntity
  8
Layer 1
 62
    40
370
    13
100
AcDbVertex
100
AcDb2dVertex
 10
63.35361237411173
 20
502.0389146413906
 30
0.0
  0
VERTEX
  5
142
330
138
100
AcDbEntity
  8
Layer 1
 62
    40
370
    13
100
AcDbVertex
100
AcDb2dVertex
 10
63.21921058649342
 20
503.4045504917436
 30
0.0
  0
VERTEX
  5
143
330
138
100
AcDbEntity
  8
Layer 1
 62
    40
370
    13
100
AcDbVertex
100
AcDb2dVertex
 10
62.82093601655176
 20
504.7175625085595
 30
0.0
  0
VERTEX
  5
144
330
138
100
AcDbEntity
  8
Layer 1
 62
    40
370
    13
100
AcDbVertex
100
AcDb2dVertex
 10
62.17392555257506
 20
505.9276092340599
 30
0.0
  0
VERTEX
  5
145
330
138
100
AcDbEntity
  8
Layer 1
 62
    40
370
    13
100
AcDbVertex
100
AcDb2dVertex
 10
61.30328532791208
 20
506.9883971976619
 30
0.0
  0
VERTEX
  5
146
330
138
100
AcDbEntity
  8
Layer 1
 62
    40
370
    13
100
AcDbVertex
100
AcDb2dVertex
 10
60.24247583246331
 20
507.8590589541716
 30
0.0
  0
VERTEX
  5
147
330
138
100
AcDbEntity
  8
Layer 1
 62
    40
370
    13
100
AcDbVertex
100
AcDb2dVertex
 10
59.03245063880965
 20
508.5060478863016
 30
0.0
  0
VERTEX
  5
148
330
138
100
AcDbEntity
  8
Layer 1
 62
    40
370
    13
100
AcDbVertex
100
AcDb2dVertex
 10
57.71941709014702
 20
508.90434398809
 30
0.0
  0
VERTEX
  5
149
330
138
100
AcDbEntity
  8
Layer 1
 62
    40
370
    13
100
AcDbVertex
100
AcDb2dVertex
 10
56.35380277164077
 20
509.0387457757083
 30
0.0
  0
VERTEX
  5
14A
330
138
100
AcDbEntity
  8
Layer 1
 62
    40
370
    13
100
AcDbVertex
100
AcDb2dVertex
 10
54.98784394358599
 20
508.90434398809
 30
0.0
  0
VERTEX
  5
14B
330
138
100
AcDbEntity
  8
Layer 1
 62
    40
370
    13
100
AcDbVertex
100
AcDb2dVertex
 10
53.67481039492336
 20
508.5060478863016
 30
0.0
  0
VERTEX
  5
14C
330
138
100
AcDbEntity
  8
Layer 1
 62
    40
370
    13
100
AcDbVertex
100
AcDb2dVertex
 10
52.46478520126971
 20
507.8590589541716
 30
0.0
  0
VERTEX
  5
14D
330
138
100
AcDbEntity
  8
Layer 1
 62
    40
370
    13
100
AcDbVertex
100
AcDb2dVertex
 10
51.40397570582093
 20
506.9883971976619
 30
0.0
  0
VERTEX
  5
14E
330
138
100
AcDbEntity
  8
Layer 1
 62
    40
370
    13
100
AcDbVertex
100
AcDb2dVertex
 10
50.53331394931116
 20
505.9276092340599
 30
0.0
  0
VERTEX
  5
14F
330
138
100
AcDbEntity
  8
Layer 1
 62
    40
370
    13
100
AcDbVertex
100
AcDb2dVertex
 10
49.88632501718125
 20
504.7175625085595
 30
0.0
  0
VERTEX
  5
150
330
138
100
AcDbEntity
  8
Layer 1
 62
    40
370
    13
100
AcDbVertex
100
AcDb2dVertex
 10
49.48805044723959
 20
503.4045504917436
 30
0.0
  0
VERTEX
  5
151
330
138
100
AcDbEntity
  8
Layer 1
 62
    40
370
    13
100
AcDbVertex
100
AcDb2dVertex
 10
49.35362712777449
 20
502.0389146413906
 30
0.0
  0
VERTEX
  5
152
330
138
100
AcDbEntity
  8
Layer 1
 62
    40
370
    13
100
AcDbVertex
100
AcDb2dVertex
 10
49.48805044723959
 20
500.6729773451826
 30
0.0
  0
VERTEX
  5
153
330
138
100
AcDbEntity
  8
Layer 1
 62
    40
370
    13
100
AcDbVertex
100
AcDb2dVertex
 10
49.88632501718125
 20
499.3599222646732
 30
0.0
  0
VERTEX
  5
154
330
138
100
AcDbEntity
  8
Layer 1
 62
    40
370
    13
100
AcDbVertex
100
AcDb2dVertex
 10
50.53331394931116
 20
498.1499186028663
 30
0.0
  0
VERTEX
  5
155
330
138
100
AcDbEntity
  8
Layer 1
 62
    40
370
    13
100
AcDbVertex
100
AcDb2dVertex
 10
51.40397570582093
 20
497.0890875755708
 30
0.0
  0
VERTEX
  5
156
330
138
100
AcDbEntity
  8
Layer 1
 62
    40
370
    13
100
AcDbVertex
100
AcDb2dVertex
 10
52.46478520126971
 20
496.2184688827546
 30
0.0
  0
VERTEX
  5
157
330
138
100
AcDbEntity
  8
Layer 1
 62
    40
370
    13
100
AcDbVertex
100
AcDb2dVertex
 10
53.67481039492336
 20
495.5718244601732
 30
0.0
  0
VERTEX
  5
158
330
138
100
AcDbEntity
  8
Layer 1
 62
    40
370
    13
100
AcDbVertex
100
AcDb2dVertex
 10
54.98784394358599
 20
495.1731838488362
 30
0.0
  0
VERTEX
  5
159
330
138
100
AcDbEntity
  8
Layer 1
 62
    40
370
    13
100
AcDbVertex
100
AcDb2dVertex
 10
56.35380277164077
 20
495.0387820612179
 30
0.0
  0
SEQEND
  5
15A
330
138
100
AcDbEntity
  8
Layer 1
 62
    40
370
    13
  0
POLYLINE
  5
15B
330
108
100
AcDbEntity
  8
Layer 1
 62
    40
370
    13
100
AcDb2dPolyline
 66
     1
 10
0.0
 20
0.0
 30
0.0
  0
VERTEX
  5
15C
330
15B
100
AcDbEntity
  8
Layer 1
 62
    40
370
    13
100
AcDbVertex
100
AcDb2dVertex
 10
56.35380277164077
 20
352.5387807405064
 30
0.0
  0
VERTEX
  5
15D
330
15B
100
AcDbEntity
  8
Layer 1
 62
    40
370
    13
100
AcDbVertex
100
AcDb2dVertex
 10
57.71941709014702
 20
352.6731825281247
 30
0.0
  0
VERTEX
  5
15E
330
15B
100
AcDbEntity
  8
Layer 1
 62
    40
370
    13
100
AcDbVertex
100
AcDb2dVertex
 10
59.03245063880965
 20
353.0714570980664
 30
0.0
  0
VERTEX
  5
15F
330
15B
100
AcDbEntity
  8
Layer 1
 62
    40
370
    13
100
AcDbVertex
100
AcDb2dVertex
 10
60.24247583246331
 20
353.7184675620431
 30
0.0
  0
VERTEX
  5
160
330
15B
100
AcDbEntity
  8
Layer 1
 62
    40
370
    13
100
AcDbVertex
100
AcDb2dVertex
 10
61.30328532791208
 20
354.5891077867061
 30
0.0
  0
VERTEX
  5
161
330
15B
100
AcDbEntity
  8
Layer 1
 62
    40
370
    13
100
AcDbVertex
100
AcDb2dVertex
 10
62.17392555257506
 20
355.6499172821548
 30
0.0
  0
VERTEX
  5
162
330
15B
100
AcDbEntity
  8
Layer 1
 62
    40
370
    13
100
AcDbVertex
100
AcDb2dVertex
 10
62.82093601655176
 20
356.8599424758085
 30
0.0
  0
VERTEX
  5
163
330
15B
100
AcDbEntity
  8
Layer 1
 62
    40
370
    13
100
AcDbVertex
100
AcDb2dVertex
 10
63.21921058649342
 20
358.1729760244711
 30
0.0
  0
VERTEX
  5
164
330
15B
100
AcDbEntity
  8
Layer 1
 62
    40
370
    13
100
AcDbVertex
100
AcDb2dVertex
 10
63.35361237411173
 20
359.5389348525259
 30
0.0
  0
VERTEX
  5
165
330
15B
100
AcDbEntity
  8
Layer 1
 62
    40
370
    13
100
AcDbVertex
100
AcDb2dVertex
 10
63.21921058649342
 20
360.9045491710322
 30
0.0
  0
VERTEX
  5
166
330
15B
100
AcDbEntity
  8
Layer 1
 62
    40
370
    13
100
AcDbVertex
100
AcDb2dVertex
 10
62.82093601655176
 20
362.2175827196947
 30
0.0
  0
VERTEX
  5
167
330
15B
100
AcDbEntity
  8
Layer 1
 62
    40
370
    13
100
AcDbVertex
100
AcDb2dVertex
 10
62.17392555257506
 20
363.4276079133484
 30
0.0
  0
VERTEX
  5
168
330
15B
100
AcDbEntity
  8
Layer 1
 62
    40
370
    13
100
AcDbVertex
100
AcDb2dVertex
 10
61.30328532791208
 20
364.4884174087972
 30
0.0
  0
VERTEX
  5
169
330
15B
100
AcDbEntity
  8
Layer 1
 62
    40
370
    13
100
AcDbVertex
100
AcDb2dVertex
 10
60.24247583246331
 20
365.3590576334602
 30
0.0
  0
VERTEX
  5
16A
330
15B
100
AcDbEntity
  8
Layer 1
 62
    40
370
    13
100
AcDbVertex
100
AcDb2dVertex
 10
59.03245063880965
 20
366.0060680974369
 30
0.0
  0
VERTEX
  5
16B
330
15B
100
AcDbEntity
  8
Layer 1
 62
    40
370
    13
100
AcDbVertex
100
AcDb2dVertex
 10
57.71941709014702
 20
366.4043426673786
 30
0.0
  0
VERTEX
  5
16C
330
15B
100
AcDbEntity
  8
Layer 1
 62
    40
370
    13
100
AcDbVertex
100
AcDb2dVertex
 10
56.35380277164077
 20
366.5387659868437
 30
0.0
  0
VERTEX
  5
16D
330
15B
100
AcDbEntity
  8
Layer 1
 62
    40
370
    13
100
AcDbVertex
100
AcDb2dVertex
 10
54.98784394358599
 20
366.4043426673786
 30
0.0
  0
VERTEX
  5
16E
330
15B
100
AcDbEntity
  8
Layer 1
 62
    40
370
    13
100
AcDbVertex
100
AcDb2dVertex
 10
53.67481039492336
 20
366.0060680974369
 30
0.0
  0
VERTEX
  5
16F
330
15B
100
AcDbEntity
  8
Layer 1
 62
    40
370
    13
100
AcDbVertex
100
AcDb2dVertex
 10
52.46478520126971
 20
365.3590576334602
 30
0.0
  0
VERTEX
  5
170
330
15B
100
AcDbEntity
  8
Layer 1
 62
    40
370
    13
100
AcDbVertex
100
AcDb2dVertex
 10
51.40397570582093
 20
364.4884174087972
 30
0.0
  0
VERTEX
  5
171
330
15B
100
AcDbEntity
  8
Layer 1
 62
    40
370
    13
100
AcDbVertex
100
AcDb2dVertex
 10
50.53331394931116
 20
363.4276079133484
 30
0.0
  0
VERTEX
  5
172
330
15B
100
AcDbEntity
  8
Layer 1
 62
    40
370
    13
100
AcDbVertex
100
AcDb2dVertex
 10
49.88632501718125
 20
362.2175827196947
 30
0.0
  0
VERTEX
  5
173
330
15B
100
AcDbEntity
  8
Layer 1
 62
    40
370
    13
100
AcDbVertex
100
AcDb2dVertex
 10
49.48805044723959
 20
360.9045491710322
 30
0.0
  0
VERTEX
  5
174
330
15B
100
AcDbEntity
  8
Layer 1
 62
    40
370
    13
100
AcDbVertex
100
AcDb2dVertex
 10
49.35362712777449
 20
359.5389348525259
 30
0.0
  0
VERTEX
  5
175
330
15B
100
AcDbEntity
  8
Layer 1
 62
    40
370
    13
100
AcDbVertex
100
AcDb2dVertex
 10
49.48805044723959
 20
358.1729760244711
 30
0.0
  0
VERTEX
  5
176
330
15B
100
AcDbEntity
  8
Layer 1
 62
    40
370
    13
100
AcDbVertex
100
AcDb2dVertex
 10
49.88632501718125
 20
356.8599424758085
 30
0.0
  0
VERTEX
  5
177
330
15B
100
AcDbEntity
  8
Layer 1
 62
    40
370
    13
100
AcDbVertex
100
AcDb2dVertex
 10
50.53331394931116
 20
355.6499172821548
 30
0.0
  0
VERTEX
  5
178
330
15B
100
AcDbEntity
  8
Layer 1
 62
    40
370
    13
100
AcDbVertex
100
AcDb2dVertex
 10
51.40397570582093
 20
354.5891077867061
 30
0.0
  0
VERTEX
  5
179
330
15B
100
AcDbEntity
  8
Layer 1
 62
    40
370
    13
100
AcDbVertex
100
AcDb2dVertex
 10
52.46478520126971
 20
353.7184675620431
 30
0.0
  0
VERTEX
  5
17A
330
15B
100
AcDbEntity
  8
Layer 1
 62
    40
370
    13
100
AcDbVertex
100
AcDb2dVertex
 10
53.67481039492336
 20
353.0714570980664
 30
0.0
  0
VERTEX
  5
17B
330
15B
100
AcDbEntity
  8
Layer 1
 62
    40
370
    13
100
AcDbVertex
100
AcDb2dVertex
 10
54.98784394358599
 20
352.6731825281247
 30
0.0
  0
VERTEX
  5
17C
330
15B
100
AcDbEntity
  8
Layer 1
 62
    40
370
    13
100
AcDbVertex
100
AcDb2dVertex
 10
56.35380277164077
 20
352.5387807405064
 30
0.0
  0
SEQEND
  5
17D
330
15B
100
AcDbEntity
  8
Layer 1
 62
    40
370
    13
  0
POLYLINE
  5
17E
330
108
100
AcDbEntity
  8
Layer 1
 62
    40
370
    13
100
AcDb2dPolyline
 66
     1
 10
0.0
 20
0.0
 30
0.0
  0
VERTEX
  5
17F
330
17E
100
AcDbEntity
  8
Layer 1
 62
    40
370
    13
100
AcDbVertex
100
AcDb2dVertex
 10
198.8538040923526
 20
352.5387807405064
 30
0.0
  0
VERTEX
  5
180
330
17E
100
AcDbEntity
  8
Layer 1
 62
    40
370
    13
100
AcDbVertex
100
AcDb2dVertex
 10
200.219396879012
 20
352.6731825281247
 30
0.0
  0
VERTEX
  5
181
330
17E
100
AcDbEntity
  8
Layer 1
 62
    40
370
    13
100
AcDbVertex
100
AcDb2dVertex
 10
201.5324304276747
 20
353.0714570980664
 30
0.0
  0
VERTEX
  5
182
330
17E
100
AcDbEntity
  8
Layer 1
 62
    40
370
    13
100
AcDbVertex
100
AcDb2dVertex
 10
202.7424556213283
 20
353.7184675620431
 30
0.0
  0
VERTEX
  5
183
330
17E
100
AcDbEntity
  8
Layer 1
 62
    40
370
    13
100
AcDbVertex
100
AcDb2dVertex
 10
203.8032651167771
 20
354.5891077867061
 30
0.0
  0
VERTEX
  5
184
330
17E
100
AcDbEntity
  8
Layer 1
 62
    40
370
    13
100
AcDbVertex
100
AcDb2dVertex
 10
204.6739268732869
 20
355.6499172821548
 30
0.0
  0
VERTEX
  5
185
330
17E
100
AcDbEntity
  8
Layer 1
 62
    40
370
    13
100
AcDbVertex
100
AcDb2dVertex
 10
205.3209158054168
 20
356.8599424758085
 30
0.0
  0
VERTEX
  5
186
330
17E
100
AcDbEntity
  8
Layer 1
 62
    40
370
    13
100
AcDbVertex
100
AcDb2dVertex
 10
205.7192119072052
 20
358.1729760244711
 30
0.0
  0
VERTEX
  5
187
330
17E
100
AcDbEntity
  8
Layer 1
 62
    40
370
    13
100
AcDbVertex
100
AcDb2dVertex
 10
205.8536136948235
 20
359.5389348525259
 30
0.0
  0
VERTEX
  5
188
330
17E
100
AcDbEntity
  8
Layer 1
 62
    40
370
    13
100
AcDbVertex
100
AcDb2dVertex
 10
205.7192119072052
 20
360.9045491710322
 30
0.0
  0
VERTEX
  5
189
330
17E
100
AcDbEntity
  8
Layer 1
 62
    40
370
    13
100
AcDbVertex
100
AcDb2dVertex
 10
205.3209158054168
 20
362.2175827196947
 30
0.0
  0
VERTEX
  5
18A
330
17E
100
AcDbEntity
  8
Layer 1
 62
    40
370
    13
100
AcDbVertex
100
AcDb2dVertex
 10
204.6739268732869
 20
363.4276079133484
 30
0.0
  0
VERTEX
  5
18B
330
17E
100
AcDbEntity
  8
Layer 1
 62
    40
370
    13
100
AcDbVertex
100
AcDb2dVertex
 10
203.8032651167771
 20
364.4884174087972
 30
0.0
  0
VERTEX
  5
18C
330
17E
100
AcDbEntity
  8
Layer 1
 62
    40
370
    13
100
AcDbVertex
100
AcDb2dVertex
 10
202.7424556213283
 20
365.3590576334602
 30
0.0
  0
VERTEX
  5
18D
330
17E
100
AcDbEntity
  8
Layer 1
 62
    40
370
    13
100
AcDbVertex
100
AcDb2dVertex
 10
201.5324304276747
 20
366.0060680974369
 30
0.0
  0
VERTEX
  5
18E
330
17E
100
AcDbEntity
  8
Layer 1
 62
    40
370
    13
100
AcDbVertex
100
AcDb2dVertex
 10
200.219396879012
 20
366.4043426673786
 30
0.0
  0
VERTEX
  5
18F
330
17E
100
AcDbEntity
  8
Layer 1
 62
    40
370
    13
100
AcDbVertex
100
AcDb2dVertex
 10
198.8538040923526
 20
366.5387659868437
 30
0.0
  0
VERTEX
  5
190
330
17E
100
AcDbEntity
  8
Layer 1
 62
    40
370
    13
100
AcDbVertex
100
AcDb2dVertex
 10
197.4878452642978
 20
366.4043426673786
 30
0.0
  0
VERTEX
  5
191
330
17E
100
AcDbEntity
  8
Layer 1
 62
    40
370
    13
100
AcDbVertex
100
AcDb2dVertex
 10
196.1747901837884
 20
366.0060680974369
 30
0.0
  0
VERTEX
  5
192
330
17E
100
AcDbEntity
  8
Layer 1
 62
    40
370
    13
100
AcDbVertex
100
AcDb2dVertex
 10
194.9647649901347
 20
365.3590576334602
 30
0.0
  0
VERTEX
  5
193
330
17E
100
AcDbEntity
  8
Layer 1
 62
    40
370
    13
100
AcDbVertex
100
AcDb2dVertex
 10
193.9039770265327
 20
364.4884174087972
 30
0.0
  0
VERTEX
  5
194
330
17E
100
AcDbEntity
  8
Layer 1
 62
    40
370
    13
100
AcDbVertex
100
AcDb2dVertex
 10
193.033315270023
 20
363.4276079133484
 30
0.0
  0
VERTEX
  5
195
330
17E
100
AcDbEntity
  8
Layer 1
 62
    40
370
    13
100
AcDbVertex
100
AcDb2dVertex
 10
192.3863263378931
 20
362.2175827196947
 30
0.0
  0
VERTEX
  5
196
330
17E
100
AcDbEntity
  8
Layer 1
 62
    40
370
    13
100
AcDbVertex
100
AcDb2dVertex
 10
191.9880302361046
 20
360.9045491710322
 30
0.0
  0
VERTEX
  5
197
330
17E
100
AcDbEntity
  8
Layer 1
 62
    40
370
    13
100
AcDbVertex
100
AcDb2dVertex
 10
191.8536284484863
 20
359.5389348525259
 30
0.0
  0
VERTEX
  5
198
330
17E
100
AcDbEntity
  8
Layer 1
 62
    40
370
    13
100
AcDbVertex
100
AcDb2dVertex
 10
191.9880302361046
 20
358.1729760244711
 30
0.0
  0
VERTEX
  5
199
330
17E
100
AcDbEntity
  8
Layer 1
 62
    40
370
    13
100
AcDbVertex
100
AcDb2dVertex
 10
192.3863263378931
 20
356.8599424758085
 30
0.0
  0
VERTEX
  5
19A
330
17E
100
AcDbEntity
  8
Layer 1
 62
    40
370
    13
100
AcDbVertex
100
AcDb2dVertex
 10
193.033315270023
 20
355.6499172821548
 30
0.0
  0
VERTEX
  5
19B
330
17E
100
AcDbEntity
  8
Layer 1
 62
    40
370
    13
100
AcDbVertex
100
AcDb2dVertex
 10
193.9039770265327
 20
354.5891077867061
 30
0.0
  0
VERTEX
  5
19C
330
17E
100
AcDbEntity
  8
Layer 1
 62
    40
370
    13
100
AcDbVertex
100
AcDb2dVertex
 10
194.9647649901347
 20
353.7184675620431
 30
0.0
  0
VERTEX
  5
19D
330
17E
100
AcDbEntity
  8
Layer 1
 62
    40
370
    13
100
AcDbVertex
100
AcDb2dVertex
 10
196.1747901837884
 20
353.0714570980664
 30
0.0
  0
VERTEX
  5
19E
330
17E
100
AcDbEntity
  8
Layer 1
 62
    40
370
    13
100
AcDbVertex
100
AcDb2dVertex
 10
197.4878452642978
 20
352.6731825281247
 30
0.0
  0
VERTEX
  5
19F
330
17E
100
AcDbEntity
  8
Layer 1
 62
    40
370
    13
100
AcDbVertex
100
AcDb2dVertex
 10
198.8538040923526
 20
352.5387807405064
 30
0.0
  0
SEQEND
  5
1A0
330
17E
100
AcDbEntity
  8
Layer 1
 62
    40
370
    13
  0
POLYLINE
  5
1A1
330
108
100
AcDbEntity
  8
Layer 1
 62
    40
370
    13
100
AcDb2dPolyline
 66
     1
 10
0.0
 20
0.0
 30
0.0
  0
VERTEX
  5
1A2
330
1A1
100
AcDbEntity
  8
Layer 1
 62
    40
370
    13
100
AcDbVertex
100
AcDb2dVertex
 10
270.8536297850731
 20
352.5387807405064
 30
0.0
  0
VERTEX
  5
1A3
330
1A1
100
AcDbEntity
  8
Layer 1
 62
    40
370
    13
100
AcDbVertex
100
AcDb2dVertex
 10
272.2192225717326
 20
352.6731825281247
 30
0.0
  0
VERTEX
  5
1A4
330
1A1
100
AcDbEntity
  8
Layer 1
 62
    40
370
    13
100
AcDbVertex
100
AcDb2dVertex
 10
273.5322345885484
 20
353.0714570980664
 30
0.0
  0
VERTEX
  5
1A5
330
1A1
100
AcDbEntity
  8
Layer 1
 62
    40
370
    13
100
AcDbVertex
100
AcDb2dVertex
 10
274.7426258235974
 20
353.7184675620431
 30
0.0
  0
VERTEX
  5
1A6
330
1A1
100
AcDbEntity
  8
Layer 1
 62
    40
370
    13
100
AcDbVertex
100
AcDb2dVertex
 10
275.8034137871994
 20
354.5891077867061
 30
0.0
  0
VERTEX
  5
1A7
330
1A1
100
AcDbEntity
  8
Layer 1
 62
    40
370
    13
100
AcDbVertex
100
AcDb2dVertex
 10
276.6737310341606
 20
355.6499172821548
 30
0.0
  0
VERTEX
  5
1A8
330
1A1
100
AcDbEntity
  8
Layer 1
 62
    40
370
    13
100
AcDbVertex
100
AcDb2dVertex
 10
277.3207199662905
 20
356.8599424758085
 30
0.0
  0
VERTEX
  5
1A9
330
1A1
100
AcDbEntity
  8
Layer 1
 62
    40
370
    13
100
AcDbVertex
100
AcDb2dVertex
 10
277.719016068079
 20
358.1729760244711
 30
0.0
  0
VERTEX
  5
1AA
330
1A1
100
AcDbEntity
  8
Layer 1
 62
    40
370
    13
100
AcDbVertex
100
AcDb2dVertex
 10
277.8537623652458
 20
359.5389348525259
 30
0.0
  0
VERTEX
  5
1AB
330
1A1
100
AcDbEntity
  8
Layer 1
 62
    40
370
    13
100
AcDbVertex
100
AcDb2dVertex
 10
277.719016068079
 20
360.9045491710322
 30
0.0
  0
VERTEX
  5
1AC
330
1A1
100
AcDbEntity
  8
Layer 1
 62
    40
370
    13
100
AcDbVertex
100
AcDb2dVertex
 10
277.3207199662905
 20
362.2175827196947
 30
0.0
  0
VERTEX
  5
1AD
330
1A1
100
AcDbEntity
  8
Layer 1
 62
    40
370
    13
100
AcDbVertex
100
AcDb2dVertex
 10
276.6737310341606
 20
363.4276079133484
 30
0.0
  0
VERTEX
  5
1AE
330
1A1
100
AcDbEntity
  8
Layer 1
 62
    40
370
    13
100
AcDbVertex
100
AcDb2dVertex
 10
275.8034137871994
 20
364.4884174087972
 30
0.0
  0
VERTEX
  5
1AF
330
1A1
100
AcDbEntity
  8
Layer 1
 62
    40
370
    13
100
AcDbVertex
100
AcDb2dVertex
 10
274.7426258235974
 20
365.3590576334602
 30
0.0
  0
VERTEX
  5
1B0
330
1A1
100
AcDbEntity
  8
Layer 1
 62
    40
370
    13
100
AcDbVertex
100
AcDb2dVertex
 10
273.5322345885484
 20
366.0060680974369
 30
0.0
  0
VERTEX
  5
1B1
330
1A1
100
AcDbEntity
  8
Layer 1
 62
    40
370
    13
100
AcDbVertex
100
AcDb2dVertex
 10
272.2192225717326
 20
366.4043426673786
 30
0.0
  0
VERTEX
  5
1B2
330
1A1
100
AcDbEntity
  8
Layer 1
 62
    40
370
    13
100
AcDbVertex
100
AcDb2dVertex
 10
270.8536297850731
 20
366.5387659868437
 30
0.0
  0
VERTEX
  5
1B3
330
1A1
100
AcDbEntity
  8
Layer 1
 62
    40
370
    13
100
AcDbVertex
100
AcDb2dVertex
 10
269.4879939347201
 20
366.4043426673786
 30
0.0
  0
VERTEX
  5
1B4
330
1A1
100
AcDbEntity
  8
Layer 1
 62
    40
370
    13
100
AcDbVertex
100
AcDb2dVertex
 10
268.1749819179042
 20
366.0060680974369
 30
0.0
  0
VERTEX
  5
1B5
330
1A1
100
AcDbEntity
  8
Layer 1
 62
    40
370
    13
100
AcDbVertex
100
AcDb2dVertex
 10
266.9645906828553
 20
365.3590576334602
 30
0.0
  0
VERTEX
  5
1B6
330
1A1
100
AcDbEntity
  8
Layer 1
 62
    40
370
    13
100
AcDbVertex
100
AcDb2dVertex
 10
265.9038027192533
 20
364.4884174087972
 30
0.0
  0
VERTEX
  5
1B7
330
1A1
100
AcDbEntity
  8
Layer 1
 62
    40
370
    13
100
AcDbVertex
100
AcDb2dVertex
 10
265.0331409627435
 20
363.4276079133484
 30
0.0
  0
VERTEX
  5
1B8
330
1A1
100
AcDbEntity
  8
Layer 1
 62
    40
370
    13
100
AcDbVertex
100
AcDb2dVertex
 10
264.3864965401621
 20
362.2175827196947
 30
0.0
  0
VERTEX
  5
1B9
330
1A1
100
AcDbEntity
  8
Layer 1
 62
    40
370
    13
100
AcDbVertex
100
AcDb2dVertex
 10
263.9882004383737
 20
360.9045491710322
 30
0.0
  0
VERTEX
  5
1BA
330
1A1
100
AcDbEntity
  8
Layer 1
 62
    40
370
    13
100
AcDbVertex
100
AcDb2dVertex
 10
263.8534541412068
 20
359.5389348525259
 30
0.0
  0
VERTEX
  5
1BB
330
1A1
100
AcDbEntity
  8
Layer 1
 62
    40
370
    13
100
AcDbVertex
100
AcDb2dVertex
 10
263.9882004383737
 20
358.1729760244711
 30
0.0
  0
VERTEX
  5
1BC
330
1A1
100
AcDbEntity
  8
Layer 1
 62
    40
370
    13
100
AcDbVertex
100
AcDb2dVertex
 10
264.3864965401621
 20
356.8599424758085
 30
0.0
  0
VERTEX
  5
1BD
330
1A1
100
AcDbEntity
  8
Layer 1
 62
    40
370
    13
100
AcDbVertex
100
AcDb2dVertex
 10
265.0331409627435
 20
355.6499172821548
 30
0.0
  0
VERTEX
  5
1BE
330
1A1
100
AcDbEntity
  8
Layer 1
 62
    40
370
    13
100
AcDbVertex
100
AcDb2dVertex
 10
265.9038027192533
 20
354.5891077867061
 30
0.0
  0
VERTEX
  5
1BF
330
1A1
100
AcDbEntity
  8
Layer 1
 62
    40
370
    13
100
AcDbVertex
100
AcDb2dVertex
 10
266.9645906828553
 20
353.7184675620431
 30
0.0
  0
VERTEX
  5
1C0
330
1A1
100
AcDbEntity
  8
Layer 1
 62
    40
370
    13
100
AcDbVertex
100
AcDb2dVertex
 10
268.1749819179042
 20
353.0714570980664
 30
0.0
  0
VERTEX
  5
1C1
330
1A1
100
AcDbEntity
  8
Layer 1
 62
    40
370
    13
100
AcDbVertex
100
AcDb2dVertex
 10
269.4879939347201
 20
352.6731825281247
 30
0.0
  0
VERTEX
  5
1C2
330
1A1
100
AcDbEntity
  8
Layer 1
 62
    40
370
    13
100
AcDbVertex
100
AcDb2dVertex
 10
270.8536297850731
 20
352.5387807405064
 30
0.0
  0
SEQEND
  5
1C3
330
1A1
100
AcDbEntity
  8
Layer 1
 62
    40
370
    13
  0
ENDBLK
  5
10B
330
108
100
AcDbEntity
  8
0
100
AcDbBlockEnd
  0
BLOCK
  5
1C6
330
1C4
100
AcDbEntity
  8
0
100
AcDbBlockBegin
  2
block 7
 70
     0
 10
0.0
 20
0.0
 30
0.0
  3
block 7
  1

  0
POLYLINE
  5
1C8
330
1C4
100
AcDbEntity
  8
Layer 1
 62
    40
370
    13
100
AcDb2dPolyline
 66
     1
 10
0.0
 20
0.0
 30
0.0
  0
VERTEX
  5
1C9
330
1C8
100
AcDbEntity
  8
Layer 1
 62
    40
370
    13
100
AcDbVertex
100
AcDb2dVertex
 10
93.85362406489168
 20
652.6935861667695
 30
0.0
  0
VERTEX
  5
1CA
330
1C8
100
AcDbEntity
  8
Layer 1
 62
    40
370
    13
100
AcDbVertex
100
AcDb2dVertex
 10
93.85362406489168
 20
647.6936329616392
 30
0.0
  0
SEQEND
  5
1CB
330
1C8
100
AcDbEntity
  8
Layer 1
 62
    40
370
    13
  0
POLYLINE
  5
1CC
330
1C4
100
AcDbEntity
  8
Layer 1
 62
    40
370
    13
100
AcDb2dPolyline
 66
     1
 10
0.0
 20
0.0
 30
0.0
  0
VERTEX
  5
1CD
330
1CC
100
AcDbEntity
  8
Layer 1
 62
    40
370
    13
100
AcDbVertex
100
AcDb2dVertex
 10
18.85376615992202
 20
647.6936329616392
 30
0.0
  0
VERTEX
  5
1CE
330
1CC
100
AcDbEntity
  8
Layer 1
 62
    40
370
    13
100
AcDbVertex
100
AcDb2dVertex
 10
18.85376615992202
 20
652.6935861667695
 30
0.0
  0
VERTEX
  5
1CF
330
1CC
100
AcDbEntity
  8
Layer 1
 62
    40
370
    13
100
AcDbVertex
100
AcDb2dVertex
 10
93.85362406489168
 20
652.6935861667695
 30
0.0
  0
VERTEX
  5
1D0
330
1CC
100
AcDbEntity
  8
Layer 1
 62
    40
370
    13
100
AcDbVertex
100
AcDb2dVertex
 10
293.8535609452302
 20
652.6935861667695
 30
0.0
  0
VERTEX
  5
1D1
330
1CC
100
AcDbEntity
  8
Layer 1
 62
    40
370
    13
100
AcDbVertex
100
AcDb2dVertex
 10
293.8535609452302
 20
647.6936329616392
 30
0.0
  0
VERTEX
  5
1D2
330
1CC
100
AcDbEntity
  8
Layer 1
 62
    40
370
    13
100
AcDbVertex
100
AcDb2dVertex
 10
93.85362406489168
 20
647.6936329616392
 30
0.0
  0
VERTEX
  5
1D3
330
1CC
100
AcDbEntity
  8
Layer 1
 62
    40
370
    13
100
AcDbVertex
100
AcDb2dVertex
 10
18.85376615992202
 20
647.6936329616392
 30
0.0
  0
SEQEND
  5
1D4
330
1CC
100
AcDbEntity
  8
Layer 1
 62
    40
370
    13
  0
ENDBLK
  5
1C7
330
1C4
100
AcDbEntity
  8
0
100
AcDbBlockEnd
  0
BLOCK
  5
1D7
330
1D5
100
AcDbEntity
  8
0
100
AcDbBlockBegin
  2
block 8
 70
     0
 10
0.0
 20
0.0
 30
0.0
  3
block 8
  1

  0
POLYLINE
  5
1D9
330
1D5
100
AcDbEntity
  8
Layer 1
 62
    40
370
    13
100
AcDb2dPolyline
 66
     1
 10
0.0
 20
0.0
 30
0.0
  0
VERTEX
  5
1DA
330
1D9
100
AcDbEntity
  8
Layer 1
 62
    40
370
    13
100
AcDbVertex
100
AcDb2dVertex
 10
356.1487679744698
 20
397.0387992094704
 30
0.0
  0
VERTEX
  5
1DB
330
1D9
100
AcDbEntity
  8
Layer 1
 62
    40
370
    13
100
AcDbVertex
100
AcDb2dVertex
 10
356.1487679744698
 20
597.0387576216553
 30
0.0
  0
VERTEX
  5
1DC
330
1D9
100
AcDbEntity
  8
Layer 1
 62
    40
370
    13
100
AcDbVertex
100
AcDb2dVertex
 10
361.1487211796
 20
597.0387576216553
 30
0.0
  0
VERTEX
  5
1DD
330
1D9
100
AcDbEntity
  8
Layer 1
 62
    40
370
    13
100
AcDbVertex
100
AcDb2dVertex
 10
361.1487211796
 20
397.0387992094704
 30
0.0
  0
VERTEX
  5
1DE
330
1D9
100
AcDbEntity
  8
Layer 1
 62
    40
370
    13
100
AcDbVertex
100
AcDb2dVertex
 10
361.1487211796
 20
322.0389413045007
 30
0.0
  0
VERTEX
  5
1DF
330
1D9
100
AcDbEntity
  8
Layer 1
 62
    40
370
    13
100
AcDbVertex
100
AcDb2dVertex
 10
356.1487679744698
 20
322.0389413045007
 30
0.0
  0
VERTEX
  5
1E0
330
1D9
100
AcDbEntity
  8
Layer 1
 62
    40
370
    13
100
AcDbVertex
100
AcDb2dVertex
 10
356.1487679744698
 20
397.0387992094704
 30
0.0
  0
SEQEND
  5
1E1
330
1D9
100
AcDbEntity
  8
Layer 1
 62
    40
370
    13
  0
POLYLINE
  5
1E2
330
1D5
100
AcDbEntity
  8
Layer 1
 62
    40
370
    13
100
AcDb2dPolyline
 66
     1
 10
0.0
 20
0.0
 30
0.0
  0
VERTEX
  5
1E3
330
1E2
100
AcDbEntity
  8
Layer 1
 62
    40
370
    13
100
AcDbVertex
100
AcDb2dVertex
 10
361.1487211796
 20
397.0387992094704
 30
0.0
  0
VERTEX
  5
1E4
330
1E2
100
AcDbEntity
  8
Layer 1
 62
    40
370
    13
100
AcDbVertex
100
AcDb2dVertex
 10
356.1487679744698
 20
397.0387992094704
 30
0.0
  0
SEQEND
  5
1E5
330
1E2
100
AcDbEntity
  8
Layer 1
 62
    40
370
    13
  0
ENDBLK
  5
1D8
330
1D5
100
AcDbEntity
  8
0
100
AcDbBlockEnd
  0
BLOCK
  5
1E8
330
1E6
100
AcDbEntity
  8
0
100
AcDbBlockBegin
  2
block 9
 70
     0
 10
0.0
 20
0.0
 30
0.0
  3
block 9
  1

  0
POLYLINE
  5
1EA
330
1E6
100
AcDbEntity
  8
Layer 1
 62
    40
370
    13
100
AcDb2dPolyline
 66
     1
 10
0.0
 20
0.0
 30
0.0
  0
VERTEX
  5
1EB
330
1EA
100
AcDbEntity
  8
Layer 1
 62
    40
370
    13
100
AcDbVertex
100
AcDb2dVertex
 10
460.938452667782
 20
420.7442643931595
 30
0.0
  0
VERTEX
  5
1EC
330
1EA
100
AcDbEntity
  8
Layer 1
 62
    40
370
    13
100
AcDbVertex
100
AcDb2dVertex
 10
460.9014178913155
 20
420.5900963701947
 30
0.0
  0
VERTEX
  5
1ED
330
1EA
100
AcDbEntity
  8
Layer 1
 62
    40
370
    13
100
AcDbVertex
100
AcDb2dVertex
 10
460.7772221990722
 20
419.3895882528193
 30
0.0
  0
VERTEX
  5
1EE
330
1EA
100
AcDbEntity
  8
Layer 1
 62
    40
370
    13
100
AcDbVertex
100
AcDb2dVertex
 10
460.9014178913155
 20
418.0462163320397
 30
0.0
  0
VERTEX
  5
1EF
330
1EA
100
AcDbEntity
  8
Layer 1
 62
    40
370
    13
100
AcDbVertex
100
AcDb2dVertex
 10
461.2672439681555
 20
416.6266432054957
 30
0.0
  0
VERTEX
  5
1F0
330
1EA
100
AcDbEntity
  8
Layer 1
 62
    40
370
    13
100
AcDbVertex
100
AcDb2dVertex
 10
461.8570873789238
 20
415.2024622637402
 30
0.0
  0
VERTEX
  5
1F1
330
1EA
100
AcDbEntity
  8
Layer 1
 62
    40
370
    13
100
AcDbVertex
100
AcDb2dVertex
 10
462.6406312833503
 20
413.8449869833179
 30
0.0
  0
VERTEX
  5
1F2
330
1EA
100
AcDbEntity
  8
Layer 1
 62
    40
370
    13
100
AcDbVertex
100
AcDb2dVertex
 10
463.5793767393873
 20
412.6222580000623
 30
0.0
  0
VERTEX
  5
1F3
330
1EA
100
AcDbEntity
  8
Layer 1
 62
    40
370
    13
100
AcDbVertex
100
AcDb2dVertex
 10
464.6253507924027
 20
411.5956626091515
 30
0.0
  0
VERTEX
  5
1F4
330
1EA
100
AcDbEntity
  8
Layer 1
 62
    40
370
    13
100
AcDbVertex
100
AcDb2dVertex
 10
465.7270492648921
 20
410.8163820103879
 30
0.0
  0
SEQEND
  5
1F5
330
1EA
100
AcDbEntity
  8
Layer 1
 62
    40
370
    13
  0
POLYLINE
  5
1F6
330
1E6
100
AcDbEntity
  8
Layer 1
 62
    40
370
    13
100
AcDb2dPolyline
 66
     1
 10
0.0
 20
0.0
 30
0.0
  0
VERTEX
  5
1F7
330
1F6
100
AcDbEntity
  8
Layer 1
 62
    40
370
    13
100
AcDbVertex
100
AcDb2dVertex
 10
465.7270492648921
 20
410.8163820103879
 30
0.0
  0
VERTEX
  5
1F8
330
1F6
100
AcDbEntity
  8
Layer 1
 62
    40
370
    13
100
AcDbVertex
100
AcDb2dVertex
 10
466.8284462915265
 20
410.3239056107715
 30
0.0
  0
VERTEX
  5
1F9
330
1F6
100
AcDbEntity
  8
Layer 1
 62
    40
370
    13
100
AcDbVertex
100
AcDb2dVertex
 10
466.9797721107161
 20
410.2794638790118
 30
0.0
  0
SEQEND
  5
1FA
330
1F6
100
AcDbEntity
  8
Layer 1
 62
    40
370
    13
  0
POLYLINE
  5
1FB
330
1E6
100
AcDbEntity
  8
Layer 1
 62
    40
370
    13
100
AcDb2dPolyline
 66
     1
 10
0.0
 20
0.0
 30
0.0
  0
VERTEX
  5
1FC
330
1FB
100
AcDbEntity
  8
Layer 1
 62
    40
370
    13
100
AcDbVertex
100
AcDb2dVertex
 10
460.938452667782
 20
537.1012878151337
 30
0.0
  0
VERTEX
  5
1FD
330
1FB
100
AcDbEntity
  8
Layer 1
 62
    40
370
    13
100
AcDbVertex
100
AcDb2dVertex
 10
460.9014178913155
 20
536.9471197921688
 30
0.0
  0
VERTEX
  5
1FE
330
1FB
100
AcDbEntity
  8
Layer 1
 62
    40
370
    13
100
AcDbVertex
100
AcDb2dVertex
 10
460.7772221990722
 20
535.7466332066399
 30
0.0
  0
VERTEX
  5
1FF
330
1FB
100
AcDbEntity
  8
Layer 1
 62
    40
370
    13
100
AcDbVertex
100
AcDb2dVertex
 10
460.9014178913155
 20
534.4032612858603
 30
0.0
  0
VERTEX
  5
200
330
1FB
100
AcDbEntity
  8
Layer 1
 62
    40
370
    13
100
AcDbVertex
100
AcDb2dVertex
 10
461.2672439681555
 20
532.9836666274695
 30
0.0
  0
VERTEX
  5
201
330
1FB
100
AcDbEntity
  8
Layer 1
 62
    40
370
    13
100
AcDbVertex
100
AcDb2dVertex
 10
461.8570873789238
 20
531.5595072175607
 30
0.0
  0
VERTEX
  5
202
330
1FB
100
AcDbEntity
  8
Layer 1
 62
    40
370
    13
100
AcDbVertex
100
AcDb2dVertex
 10
462.6406312833503
 20
530.2020104052916
 30
0.0
  0
VERTEX
  5
203
330
1FB
100
AcDbEntity
  8
Layer 1
 62
    40
370
    13
100
AcDbVertex
100
AcDb2dVertex
 10
463.5793767393873
 20
528.9793029538829
 30
0.0
  0
VERTEX
  5
204
330
1FB
100
AcDbEntity
  8
Layer 1
 62
    40
370
    13
100
AcDbVertex
100
AcDb2dVertex
 10
464.6253507924027
 20
527.952707562972
 30
0.0
  0
VERTEX
  5
205
330
1FB
100
AcDbEntity
  8
Layer 1
 62
    40
370
    13
100
AcDbVertex
100
AcDb2dVertex
 10
465.7270492648921
 20
527.1734269642085
 30
0.0
  0
SEQEND
  5
206
330
1FB
100
AcDbEntity
  8
Layer 1
 62
    40
370
    13
  0
POLYLINE
  5
207
330
1E6
100
AcDbEntity
  8
Layer 1
 62
    40
370
    13
100
AcDb2dPolyline
 66
     1
 10
0.0
 20
0.0
 30
0.0
  0
VERTEX
  5
208
330
207
100
AcDbEntity
  8
Layer 1
 62
    40
370
    13
100
AcDbVertex
100
AcDb2dVertex
 10
465.7270492648921
 20
527.1734269642085
 30
0.0
  0
VERTEX
  5
209
330
207
100
AcDbEntity
  8
Layer 1
 62
    40
370
    13
100
AcDbVertex
100
AcDb2dVertex
 10
466.8284462915265
 20
526.6809505645921
 30
0.0
  0
VERTEX
  5
20A
330
207
100
AcDbEntity
  8
Layer 1
 62
    40
370
    13
100
AcDbVertex
100
AcDb2dVertex
 10
466.9797721107161
 20
526.6365088328323
 30
0.0
  0
SEQEND
  5
20B
330
207
100
AcDbEntity
  8
Layer 1
 62
    40
370
    13
  0
POLYLINE
  5
20C
330
1E6
100
AcDbEntity
  8
Layer 1
 62
    40
370
    13
100
AcDb2dPolyline
 66
     1
 10
0.0
 20
0.0
 30
0.0
  0
VERTEX
  5
20D
330
20C
100
AcDbEntity
  8
Layer 1
 62
    40
370
    13
100
AcDbVertex
100
AcDb2dVertex
 10
561.7013375031598
 20
362.5750759718298
 30
0.0
  0
VERTEX
  5
20E
330
20C
100
AcDbEntity
  8
Layer 1
 62
    40
370
    13
100
AcDbVertex
100
AcDb2dVertex
 10
561.6639151534513
 20
362.4209079488649
 30
0.0
  0
VERTEX
  5
20F
330
20C
100
AcDbEntity
  8
Layer 1
 62
    40
370
    13
100
AcDbVertex
100
AcDb2dVertex
 10
561.5397625249016
 20
361.2207658728845
 30
0.0
  0
VERTEX
  5
210
330
20C
100
AcDbEntity
  8
Layer 1
 62
    40
370
    13
100
AcDbVertex
100
AcDb2dVertex
 10
561.6639151534513
 20
359.8770279107096
 30
0.0
  0
VERTEX
  5
211
330
20C
100
AcDbEntity
  8
Layer 1
 62
    40
370
    13
100
AcDbVertex
100
AcDb2dVertex
 10
562.0300857398398
 20
358.4577992937141
 30
0.0
  0
VERTEX
  5
212
330
20C
100
AcDbEntity
  8
Layer 1
 62
    40
370
    13
100
AcDbVertex
100
AcDb2dVertex
 10
562.6199291506081
 20
357.0336398838054
 30
0.0
  0
VERTEX
  5
213
330
20C
100
AcDbEntity
  8
Layer 1
 62
    40
370
    13
100
AcDbVertex
100
AcDb2dVertex
 10
563.4034730550346
 20
355.6761646033831
 30
0.0
  0
VERTEX
  5
214
330
20C
100
AcDbEntity
  8
Layer 1
 62
    40
370
    13
100
AcDbVertex
100
AcDb2dVertex
 10
564.3418740015231
 20
354.4530695787323
 30
0.0
  0
VERTEX
  5
215
330
20C
100
AcDbEntity
  8
Layer 1
 62
    40
370
    13
100
AcDbVertex
100
AcDb2dVertex
 10
565.388192564087
 20
353.4264957196681
 30
0.0
  0
VERTEX
  5
216
330
20C
100
AcDbEntity
  8
Layer 1
 62
    40
370
    13
100
AcDbVertex
100
AcDb2dVertex
 10
566.4895895907214
 20
352.6475596304531
 30
0.0
  0
SEQEND
  5
217
330
20C
100
AcDbEntity
  8
Layer 1
 62
    40
370
    13
  0
POLYLINE
  5
218
330
1E6
100
AcDbEntity
  8
Layer 1
 62
    40
370
    13
100
AcDb2dPolyline
 66
     1
 10
0.0
 20
0.0
 30
0.0
  0
VERTEX
  5
219
330
218
100
AcDbEntity
  8
Layer 1
 62
    40
370
    13
100
AcDbVertex
100
AcDb2dVertex
 10
566.4895895907214
 20
352.6475596304531
 30
0.0
  0
VERTEX
  5
21A
330
218
100
AcDbEntity
  8
Layer 1
 62
    40
370
    13
100
AcDbVertex
100
AcDb2dVertex
 10
567.5909435536622
 20
352.1547171894414
 30
0.0
  0
VERTEX
  5
21B
330
218
100
AcDbEntity
  8
Layer 1
 62
    40
370
    13
100
AcDbVertex
100
AcDb2dVertex
 10
567.7422693728519
 20
352.1102754576817
 30
0.0
  0
SEQEND
  5
21C
330
218
100
AcDbEntity
  8
Layer 1
 62
    40
370
    13
  0
POLYLINE
  5
21D
330
1E6
100
AcDbEntity
  8
Layer 1
 62
    40
370
    13
100
AcDb2dPolyline
 66
     1
 10
0.0
 20
0.0
 30
0.0
  0
VERTEX
  5
21E
330
21D
100
AcDbEntity
  8
Layer 1
 62
    40
370
    13
100
AcDbVertex
100
AcDb2dVertex
 10
460.938452667782
 20
595.89205758939
 30
0.0
  0
VERTEX
  5
21F
330
21D
100
AcDbEntity
  8
Layer 1
 62
    40
370
    13
100
AcDbVertex
100
AcDb2dVertex
 10
460.9014178913155
 20
595.737889566425
 30
0.0
  0
VERTEX
  5
220
330
21D
100
AcDbEntity
  8
Layer 1
 62
    40
370
    13
100
AcDbVertex
100
AcDb2dVertex
 10
460.7772221990722
 20
594.5377474904448
 30
0.0
  0
VERTEX
  5
221
330
21D
100
AcDbEntity
  8
Layer 1
 62
    40
370
    13
100
AcDbVertex
100
AcDb2dVertex
 10
460.9014178913155
 20
593.1940310601166
 30
0.0
  0
VERTEX
  5
222
330
21D
100
AcDbEntity
  8
Layer 1
 62
    40
370
    13
100
AcDbVertex
100
AcDb2dVertex
 10
461.2672439681555
 20
591.7747809112743
 30
0.0
  0
VERTEX
  5
223
330
21D
100
AcDbEntity
  8
Layer 1
 62
    40
370
    13
100
AcDbVertex
100
AcDb2dVertex
 10
461.8570873789238
 20
590.3506215013656
 30
0.0
  0
VERTEX
  5
224
330
21D
100
AcDbEntity
  8
Layer 1
 62
    40
370
    13
100
AcDbVertex
100
AcDb2dVertex
 10
462.6406312833503
 20
588.9931677527901
 30
0.0
  0
VERTEX
  5
225
330
21D
100
AcDbEntity
  8
Layer 1
 62
    40
370
    13
100
AcDbVertex
100
AcDb2dVertex
 10
463.5793767393873
 20
587.7704172376878
 30
0.0
  0
VERTEX
  5
226
330
21D
100
AcDbEntity
  8
Layer 1
 62
    40
370
    13
100
AcDbVertex
100
AcDb2dVertex
 10
464.6253507924027
 20
586.7434773372283
 30
0.0
  0
VERTEX
  5
227
330
21D
100
AcDbEntity
  8
Layer 1
 62
    40
370
    13
100
AcDbVertex
100
AcDb2dVertex
 10
465.7270492648921
 20
585.9645412480133
 30
0.0
  0
SEQEND
  5
228
330
21D
100
AcDbEntity
  8
Layer 1
 62
    40
370
    13
  0
POLYLINE
  5
229
330
1E6
100
AcDbEntity
  8
Layer 1
 62
    40
370
    13
100
AcDb2dPolyline
 66
     1
 10
0.0
 20
0.0
 30
0.0
  0
VERTEX
  5
22A
330
229
100
AcDbEntity
  8
Layer 1
 62
    40
370
    13
100
AcDbVertex
100
AcDb2dVertex
 10
465.7270492648921
 20
585.9645412480133
 30
0.0
  0
VERTEX
  5
22B
330
229
100
AcDbEntity
  8
Layer 1
 62
    40
370
    13
100
AcDbVertex
100
AcDb2dVertex
 10
466.8284462915265
 20
585.4720648483969
 30
0.0
  0
VERTEX
  5
22C
330
229
100
AcDbEntity
  8
Layer 1
 62
    40
370
    13
100
AcDbVertex
100
AcDb2dVertex
 10
466.9797721107161
 20
585.4272786070886
 30
0.0
  0
SEQEND
  5
22D
330
229
100
AcDbEntity
  8
Layer 1
 62
    40
370
    13
  0
POLYLINE
  5
22E
330
1E6
100
AcDbEntity
  8
Layer 1
 62
    40
370
    13
100
AcDb2dPolyline
 66
     1
 10
0.0
 20
0.0
 30
0.0
  0
VERTEX
  5
22F
330
22E
100
AcDbEntity
  8
Layer 1
 62
    40
370
    13
100
AcDbVertex
100
AcDb2dVertex
 10
612.612786329408
 20
333.1844496228406
 30
0.0
  0
VERTEX
  5
230
330
22E
100
AcDbEntity
  8
Layer 1
 62
    40
370
    13
100
AcDbVertex
100
AcDb2dVertex
 10
612.5757515529415
 20
333.0302815998757
 30
0.0
  0
VERTEX
  5
231
330
22E
100
AcDbEntity
  8
Layer 1
 62
    40
370
    13
100
AcDbVertex
100
AcDb2dVertex
 10
612.4515558606982
 20
331.8297950143468
 30
0.0
  0
VERTEX
  5
232
330
22E
100
AcDbEntity
  8
Layer 1
 62
    40
370
    13
100
AcDbVertex
100
AcDb2dVertex
 10
612.5757515529415
 20
330.4864015617204
 30
0.0
  0
VERTEX
  5
233
330
22E
100
AcDbEntity
  8
Layer 1
 62
    40
370
    13
100
AcDbVertex
100
AcDb2dVertex
 10
612.9418790756365
 20
329.0668284351764
 30
0.0
  0
VERTEX
  5
234
330
22E
100
AcDbEntity
  8
Layer 1
 62
    40
370
    13
100
AcDbVertex
100
AcDb2dVertex
 10
613.5314210405498
 20
327.6426690252678
 30
0.0
  0
VERTEX
  5
235
330
22E
100
AcDbEntity
  8
Layer 1
 62
    40
370
    13
100
AcDbVertex
100
AcDb2dVertex
 10
614.3152663908313
 20
326.2851722129986
 30
0.0
  0
VERTEX
  5
236
330
22E
100
AcDbEntity
  8
Layer 1
 62
    40
370
    13
100
AcDbVertex
100
AcDb2dVertex
 10
615.2536242736262
 20
325.0624432297431
 30
0.0
  0
VERTEX
  5
237
330
22E
100
AcDbEntity
  8
Layer 1
 62
    40
370
    13
100
AcDbVertex
100
AcDb2dVertex
 10
616.2999858998837
 20
324.035869370679
 30
0.0
  0
VERTEX
  5
238
330
22E
100
AcDbEntity
  8
Layer 1
 62
    40
370
    13
100
AcDbVertex
100
AcDb2dVertex
 10
617.4013829265181
 20
323.2565887719155
 30
0.0
  0
SEQEND
  5
239
330
22E
100
AcDbEntity
  8
Layer 1
 62
    40
370
    13
  0
POLYLINE
  5
23A
330
1E6
100
AcDbEntity
  8
Layer 1
 62
    40
370
    13
100
AcDb2dPolyline
 66
     1
 10
0.0
 20
0.0
 30
0.0
  0
VERTEX
  5
23B
330
23A
100
AcDbEntity
  8
Layer 1
 62
    40
370
    13
100
AcDbVertex
100
AcDb2dVertex
 10
617.4013829265181
 20
323.2565887719155
 30
0.0
  0
VERTEX
  5
23C
330
23A
100
AcDbEntity
  8
Layer 1
 62
    40
370
    13
100
AcDbVertex
100
AcDb2dVertex
 10
618.5027799531525
 20
322.764112372299
 30
0.0
  0
VERTEX
  5
23D
330
23A
100
AcDbEntity
  8
Layer 1
 62
    40
370
    13
100
AcDbVertex
100
AcDb2dVertex
 10
618.6541057723421
 20
322.7196491086925
 30
0.0
  0
SEQEND
  5
23E
330
23A
100
AcDbEntity
  8
Layer 1
 62
    40
370
    13
  0
POLYLINE
  5
23F
330
1E6
100
AcDbEntity
  8
Layer 1
 62
    40
370
    13
100
AcDb2dPolyline
 66
     1
 10
0.0
 20
0.0
 30
0.0
  0
VERTEX
  5
240
330
23F
100
AcDbEntity
  8
Layer 1
 62
    40
370
    13
100
AcDbVertex
100
AcDb2dVertex
 10
492.2436047053116
 20
595.1529984804167
 30
0.0
  0
VERTEX
  5
241
330
23F
100
AcDbEntity
  8
Layer 1
 62
    40
370
    13
100
AcDbVertex
100
AcDb2dVertex
 10
439.2105368881662
 20
625.768485465493
 30
0.0
  0
SEQEND
  5
242
330
23F
100
AcDbEntity
  8
Layer 1
 62
    40
370
    13
  0
POLYLINE
  5
243
330
1E6
100
AcDbEntity
  8
Layer 1
 62
    40
370
    13
100
AcDb2dPolyline
 66
     1
 10
0.0
 20
0.0
 30
0.0
  0
VERTEX
  5
244
330
243
100
AcDbEntity
  8
Layer 1
 62
    40
370
    13
100
AcDbVertex
100
AcDb2dVertex
 10
439.2105368881662
 20
625.768485465493
 30
0.0
  0
VERTEX
  5
245
330
243
100
AcDbEntity
  8
Layer 1
 62
    40
370
    13
100
AcDbVertex
100
AcDb2dVertex
 10
435.6750076464285
 20
623.727309454176
 30
0.0
  0
SEQEND
  5
246
330
243
100
AcDbEntity
  8
Layer 1
 62
    40
370
    13
  0
POLYLINE
  5
247
330
1E6
100
AcDbEntity
  8
Layer 1
 62
    40
370
    13
100
AcDb2dPolyline
 66
     1
 10
0.0
 20
0.0
 30
0.0
  0
VERTEX
  5
248
330
247
100
AcDbEntity
  8
Layer 1
 62
    40
370
    13
100
AcDbVertex
100
AcDb2dVertex
 10
492.2436047053116
 20
431.8447496198766
 30
0.0
  0
VERTEX
  5
249
330
247
100
AcDbEntity
  8
Layer 1
 62
    40
370
    13
100
AcDbVertex
100
AcDb2dVertex
 10
492.2436047053116
 20
595.1529984804167
 30
0.0
  0
SEQEND
  5
24A
330
247
100
AcDbEntity
  8
Layer 1
 62
    40
370
    13
  0
POLYLINE
  5
24B
330
1E6
100
AcDbEntity
  8
Layer 1
 62
    40
370
    13
100
AcDb2dPolyline
 66
     1
 10
0.0
 20
0.0
 30
0.0
  0
VERTEX
  5
24C
330
24B
100
AcDbEntity
  8
Layer 1
 62
    40
370
    13
100
AcDbVertex
100
AcDb2dVertex
 10
492.2436047053116
 20
595.1529984804167
 30
0.0
  0
VERTEX
  5
24D
330
24B
100
AcDbEntity
  8
Layer 1
 62
    40
370
    13
100
AcDbVertex
100
AcDb2dVertex
 10
488.7077309540254
 20
593.1121669786484
 30
0.0
  0
SEQEND
  5
24E
330
24B
100
AcDbEntity
  8
Layer 1
 62
    40
370
    13
  0
POLYLINE
  5
24F
330
1E6
100
AcDbEntity
  8
Layer 1
 62
    40
370
    13
100
AcDb2dPolyline
 66
     1
 10
0.0
 20
0.0
 30
0.0
  0
VERTEX
  5
250
330
24F
100
AcDbEntity
  8
Layer 1
 62
    40
370
    13
100
AcDbVertex
100
AcDb2dVertex
 10
633.6648174385112
 20
350.2042117849268
 30
0.0
  0
VERTEX
  5
251
330
24F
100
AcDbEntity
  8
Layer 1
 62
    40
370
    13
100
AcDbVertex
100
AcDb2dVertex
 10
492.2436047053116
 20
431.8447496198766
 30
0.0
  0
SEQEND
  5
252
330
24F
100
AcDbEntity
  8
Layer 1
 62
    40
370
    13
  0
POLYLINE
  5
253
330
1E6
100
AcDbEntity
  8
Layer 1
 62
    40
370
    13
100
AcDb2dPolyline
 66
     1
 10
0.0
 20
0.0
 30
0.0
  0
VERTEX
  5
254
330
253
100
AcDbEntity
  8
Layer 1
 62
    40
370
    13
100
AcDbVertex
100
AcDb2dVertex
 10
492.2436047053116
 20
431.8447496198766
 30
0.0
  0
VERTEX
  5
255
330
253
100
AcDbEntity
  8
Layer 1
 62
    40
370
    13
100
AcDbVertex
100
AcDb2dVertex
 10
488.7077309540254
 20
429.803939649955
 30
0.0
  0
SEQEND
  5
256
330
253
100
AcDbEntity
  8
Layer 1
 62
    40
370
    13
  0
POLYLINE
  5
257
330
1E6
100
AcDbEntity
  8
Layer 1
 62
    40
370
    13
100
AcDb2dPolyline
 66
     1
 10
0.0
 20
0.0
 30
0.0
  0
VERTEX
  5
258
330
257
100
AcDbEntity
  8
Layer 1
 62
    40
370
    13
100
AcDbVertex
100
AcDb2dVertex
 10
633.6648174385112
 20
288.9634192926416
 30
0.0
  0
VERTEX
  5
259
330
257
100
AcDbEntity
  8
Layer 1
 62
    40
370
    13
100
AcDbVertex
100
AcDb2dVertex
 10
633.6648174385112
 20
350.2042117849268
 30
0.0
  0
SEQEND
  5
25A
330
257
100
AcDbEntity
  8
Layer 1
 62
    40
370
    13
  0
POLYLINE
  5
25B
330
1E6
100
AcDbEntity
  8
Layer 1
 62
    40
370
    13
100
AcDb2dPolyline
 66
     1
 10
0.0
 20
0.0
 30
0.0
  0
VERTEX
  5
25C
330
25B
100
AcDbEntity
  8
Layer 1
 62
    40
370
    13
100
AcDbVertex
100
AcDb2dVertex
 10
633.6648174385112
 20
288.9634192926416
 30
0.0
  0
VERTEX
  5
25D
330
25B
100
AcDbEntity
  8
Layer 1
 62
    40
370
    13
100
AcDbVertex
100
AcDb2dVertex
 10
630.1292881967736
 20
286.9225985567965
 30
0.0
  0
SEQEND
  5
25E
330
25B
100
AcDbEntity
  8
Layer 1
 62
    40
370
    13
  0
POLYLINE
  5
25F
330
1E6
100
AcDbEntity
  8
Layer 1
 62
    40
370
    13
100
AcDb2dPolyline
 66
     1
 10
0.0
 20
0.0
 30
0.0
  0
VERTEX
  5
260
330
25F
100
AcDbEntity
  8
Layer 1
 62
    40
370
    13
100
AcDbVertex
100
AcDb2dVertex
 10
633.6648174385112
 20
350.2042117849268
 30
0.0
  0
VERTEX
  5
261
330
25F
100
AcDbEntity
  8
Layer 1
 62
    40
370
    13
100
AcDbVertex
100
AcDb2dVertex
 10
630.1292881967736
 20
348.1630573054567
 30
0.0
  0
SEQEND
  5
262
330
25F
100
AcDbEntity
  8
Layer 1
 62
    40
370
    13
  0
POLYLINE
  5
263
330
1E6
100
AcDbEntity
  8
Layer 1
 62
    40
370
    13
100
AcDb2dPolyline
 66
     1
 10
0.0
 20
0.0
 30
0.0
  0
VERTEX
  5
264
330
263
100
AcDbEntity
  8
Layer 1
 62
    40
370
    13
100
AcDbVertex
100
AcDb2dVertex
 10
462.1915200231545
 20
583.9233652366964
 30
0.0
  0
VERTEX
  5
265
330
263
100
AcDbEntity
  8
Layer 1
 62
    40
370
    13
100
AcDbVertex
100
AcDb2dVertex
 10
463.2929170497888
 20
583.4308888370799
 30
0.0
  0
VERTEX
  5
266
330
263
100
AcDbEntity
  8
Layer 1
 62
    40
370
    13
100
AcDbVertex
100
AcDb2dVertex
 10
464.3388911028042
 20
583.2495906871686
 30
0.0
  0
VERTEX
  5
267
330
263
100
AcDbEntity
  8
Layer 1
 62
    40
370
    13
100
AcDbVertex
100
AcDb2dVertex
 10
465.2776365588413
 20
583.3889017358534
 30
0.0
  0
VERTEX
  5
268
330
263
100
AcDbEntity
  8
Layer 1
 62
    40
370
    13
100
AcDbVertex
100
AcDb2dVertex
 10
466.0611373995742
 20
583.8415442189217
 30
0.0
  0
VERTEX
  5
269
330
263
100
AcDbEntity
  8
Layer 1
 62
    40
370
    13
100
AcDbVertex
100
AcDb2dVertex
 10
466.6509808103426
 20
584.5848235698644
 30
0.0
  0
VERTEX
  5
26A
330
263
100
AcDbEntity
  8
Layer 1
 62
    40
370
    13
100
AcDbVertex
100
AcDb2dVertex
 10
467.0171944604246
 20
585.5814466300536
 30
0.0
  0
VERTEX
  5
26B
330
263
100
AcDbEntity
  8
Layer 1
 62
    40
370
    13
100
AcDbVertex
100
AcDb2dVertex
 10
467.1410025794257
 20
586.7819332155824
 30
0.0
  0
VERTEX
  5
26C
330
263
100
AcDbEntity
  8
Layer 1
 62
    40
370
    13
100
AcDbVertex
100
AcDb2dVertex
 10
467.0171944604246
 20
588.125305136362
 30
0.0
  0
VERTEX
  5
26D
330
263
100
AcDbEntity
  8
Layer 1
 62
    40
370
    13
100
AcDbVertex
100
AcDb2dVertex
 10
466.6509808103426
 20
589.5448997947528
 30
0.0
  0
VERTEX
  5
26E
330
263
100
AcDbEntity
  8
Layer 1
 62
    40
370
    13
100
AcDbVertex
100
AcDb2dVertex
 10
466.0611373995742
 20
590.9690592046616
 30
0.0
  0
VERTEX
  5
26F
330
263
100
AcDbEntity
  8
Layer 1
 62
    40
370
    13
100
AcDbVertex
100
AcDb2dVertex
 10
465.2776365588413
 20
592.3265560169307
 30
0.0
  0
VERTEX
  5
270
330
263
100
AcDbEntity
  8
Layer 1
 62
    40
370
    13
100
AcDbVertex
100
AcDb2dVertex
 10
464.3388911028042
 20
593.5492634683394
 30
0.0
  0
VERTEX
  5
271
330
263
100
AcDbEntity
  8
Layer 1
 62
    40
370
    13
100
AcDbVertex
100
AcDb2dVertex
 10
463.2929170497888
 20
594.5758588592503
 30
0.0
  0
VERTEX
  5
272
330
263
100
AcDbEntity
  8
Layer 1
 62
    40
370
    13
100
AcDbVertex
100
AcDb2dVertex
 10
462.1915200231545
 20
595.3551394580138
 30
0.0
  0
VERTEX
  5
273
330
263
100
AcDbEntity
  8
Layer 1
 62
    40
370
    13
100
AcDbVertex
100
AcDb2dVertex
 10
461.0898215506651
 20
595.8476158576302
 30
0.0
  0
VERTEX
  5
274
330
263
100
AcDbEntity
  8
Layer 1
 62
    40
370
    13
100
AcDbVertex
100
AcDb2dVertex
 10
460.0438044339562
 20
596.0286125616866
 30
0.0
  0
VERTEX
  5
275
330
263
100
AcDbEntity
  8
Layer 1
 62
    40
370
    13
100
AcDbVertex
100
AcDb2dVertex
 10
459.1054465511612
 20
595.8896029588567
 30
0.0
  0
VERTEX
  5
276
330
263
100
AcDbEntity
  8
Layer 1
 62
    40
370
    13
100
AcDbVertex
100
AcDb2dVertex
 10
458.3215581371862
 20
595.437003539482
 30
0.0
  0
VERTEX
  5
277
330
263
100
AcDbEntity
  8
Layer 1
 62
    40
370
    13
100
AcDbVertex
100
AcDb2dVertex
 10
457.7317147264179
 20
594.6936811248459
 30
0.0
  0
VERTEX
  5
278
330
263
100
AcDbEntity
  8
Layer 1
 62
    40
370
    13
100
AcDbVertex
100
AcDb2dVertex
 10
457.3658886495779
 20
593.6971011283501
 30
0.0
  0
VERTEX
  5
279
330
263
100
AcDbEntity
  8
Layer 1
 62
    40
370
    13
100
AcDbVertex
100
AcDb2dVertex
 10
457.2416929573346
 20
592.4965714791277
 30
0.0
  0
VERTEX
  5
27A
330
263
100
AcDbEntity
  8
Layer 1
 62
    40
370
    13
100
AcDbVertex
100
AcDb2dVertex
 10
457.3658886495779
 20
591.1531995583481
 30
0.0
  0
VERTEX
  5
27B
330
263
100
AcDbEntity
  8
Layer 1
 62
    40
370
    13
100
AcDbVertex
100
AcDb2dVertex
 10
457.7317147264179
 20
589.7336479636509
 30
0.0
  0
VERTEX
  5
27C
330
263
100
AcDbEntity
  8
Layer 1
 62
    40
370
    13
100
AcDbVertex
100
AcDb2dVertex
 10
458.3215581371862
 20
588.3094454900487
 30
0.0
  0
VERTEX
  5
27D
330
263
100
AcDbEntity
  8
Layer 1
 62
    40
370
    13
100
AcDbVertex
100
AcDb2dVertex
 10
459.1054465511612
 20
586.9519917414731
 30
0.0
  0
VERTEX
  5
27E
330
263
100
AcDbEntity
  8
Layer 1
 62
    40
370
    13
100
AcDbVertex
100
AcDb2dVertex
 10
460.0438044339562
 20
585.7292412263708
 30
0.0
  0
VERTEX
  5
27F
330
263
100
AcDbEntity
  8
Layer 1
 62
    40
370
    13
100
AcDbVertex
100
AcDb2dVertex
 10
461.0898215506651
 20
584.7026458354599
 30
0.0
  0
VERTEX
  5
280
330
263
100
AcDbEntity
  8
Layer 1
 62
    40
370
    13
100
AcDbVertex
100
AcDb2dVertex
 10
462.1915200231545
 20
583.9233652366964
 30
0.0
  0
SEQEND
  5
281
330
263
100
AcDbEntity
  8
Layer 1
 62
    40
370
    13
  0
POLYLINE
  5
282
330
1E6
100
AcDbEntity
  8
Layer 1
 62
    40
370
    13
100
AcDb2dPolyline
 66
     1
 10
0.0
 20
0.0
 30
0.0
  0
VERTEX
  5
283
330
282
100
AcDbEntity
  8
Layer 1
 62
    40
370
    13
100
AcDbVertex
100
AcDb2dVertex
 10
462.1915200231545
 20
525.1325954624401
 30
0.0
  0
VERTEX
  5
284
330
282
100
AcDbEntity
  8
Layer 1
 62
    40
370
    13
100
AcDbVertex
100
AcDb2dVertex
 10
463.2929170497888
 20
524.6401190628236
 30
0.0
  0
VERTEX
  5
285
330
282
100
AcDbEntity
  8
Layer 1
 62
    40
370
    13
100
AcDbVertex
100
AcDb2dVertex
 10
464.3388911028042
 20
524.4587778492188
 30
0.0
  0
VERTEX
  5
286
330
282
100
AcDbEntity
  8
Layer 1
 62
    40
370
    13
100
AcDbVertex
100
AcDb2dVertex
 10
465.2776365588413
 20
524.5977874520486
 30
0.0
  0
VERTEX
  5
287
330
282
100
AcDbEntity
  8
Layer 1
 62
    40
370
    13
100
AcDbVertex
100
AcDb2dVertex
 10
466.0611373995742
 20
525.0503868714234
 30
0.0
  0
VERTEX
  5
288
330
282
100
AcDbEntity
  8
Layer 1
 62
    40
370
    13
100
AcDbVertex
100
AcDb2dVertex
 10
466.6509808103426
 20
525.7940537956081
 30
0.0
  0
VERTEX
  5
289
330
282
100
AcDbEntity
  8
Layer 1
 62
    40
370
    13
100
AcDbVertex
100
AcDb2dVertex
 10
467.0171944604246
 20
526.7906768557973
 30
0.0
  0
VERTEX
  5
28A
330
282
100
AcDbEntity
  8
Layer 1
 62
    40
370
    13
100
AcDbVertex
100
AcDb2dVertex
 10
467.1410025794257
 20
527.9908189317777
 30
0.0
  0
VERTEX
  5
28B
330
282
100
AcDbEntity
  8
Layer 1
 62
    40
370
    13
100
AcDbVertex
100
AcDb2dVertex
 10
467.0171944604246
 20
529.3345353621057
 30
0.0
  0
VERTEX
  5
28C
330
282
100
AcDbEntity
  8
Layer 1
 62
    40
370
    13
100
AcDbVertex
100
AcDb2dVertex
 10
466.6509808103426
 20
530.753785510948
 30
0.0
  0
VERTEX
  5
28D
330
282
100
AcDbEntity
  8
Layer 1
 62
    40
370
    13
100
AcDbVertex
100
AcDb2dVertex
 10
466.0611373995742
 20
532.1779449208567
 30
0.0
  0
VERTEX
  5
28E
330
282
100
AcDbEntity
  8
Layer 1
 62
    40
370
    13
100
AcDbVertex
100
AcDb2dVertex
 10
465.2776365588413
 20
533.5354417331258
 30
0.0
  0
VERTEX
  5
28F
330
282
100
AcDbEntity
  8
Layer 1
 62
    40
370
    13
100
AcDbVertex
100
AcDb2dVertex
 10
464.3388911028042
 20
534.7581491845345
 30
0.0
  0
VERTEX
  5
290
330
282
100
AcDbEntity
  8
Layer 1
 62
    40
370
    13
100
AcDbVertex
100
AcDb2dVertex
 10
463.2929170497888
 20
535.785089084994
 30
0.0
  0
VERTEX
  5
291
330
282
100
AcDbEntity
  8
Layer 1
 62
    40
370
    13
100
AcDbVertex
100
AcDb2dVertex
 10
462.1915200231545
 20
536.564025174209
 30
0.0
  0
VERTEX
  5
292
330
282
100
AcDbEntity
  8
Layer 1
 62
    40
370
    13
100
AcDbVertex
100
AcDb2dVertex
 10
461.0898215506651
 20
537.0565015738255
 30
0.0
  0
VERTEX
  5
293
330
282
100
AcDbEntity
  8
Layer 1
 62
    40
370
    13
100
AcDbVertex
100
AcDb2dVertex
 10
460.0438044339562
 20
537.2378427874303
 30
0.0
  0
VERTEX
  5
294
330
282
100
AcDbEntity
  8
Layer 1
 62
    40
370
    13
100
AcDbVertex
100
AcDb2dVertex
 10
459.1054465511612
 20
537.0988331846005
 30
0.0
  0
VERTEX
  5
295
330
282
100
AcDbEntity
  8
Layer 1
 62
    40
370
    13
100
AcDbVertex
100
AcDb2dVertex
 10
458.3215581371862
 20
536.6462337652257
 30
0.0
  0
VERTEX
  5
296
330
282
100
AcDbEntity
  8
Layer 1
 62
    40
370
    13
100
AcDbVertex
100
AcDb2dVertex
 10
457.7317147264179
 20
535.9029113505895
 30
0.0
  0
VERTEX
  5
297
330
282
100
AcDbEntity
  8
Layer 1
 62
    40
370
    13
100
AcDbVertex
100
AcDb2dVertex
 10
457.3658886495779
 20
534.9059437808518
 30
0.0
  0
VERTEX
  5
298
330
282
100
AcDbEntity
  8
Layer 1
 62
    40
370
    13
100
AcDbVertex
100
AcDb2dVertex
 10
457.2416929573346
 20
533.7058017048714
 30
0.0
  0
VERTEX
  5
299
330
282
100
AcDbEntity
  8
Layer 1
 62
    40
370
    13
100
AcDbVertex
100
AcDb2dVertex
 10
457.3658886495779
 20
532.3620852745433
 30
0.0
  0
VERTEX
  5
29A
330
282
100
AcDbEntity
  8
Layer 1
 62
    40
370
    13
100
AcDbVertex
100
AcDb2dVertex
 10
457.7317147264179
 20
530.9428781893946
 30
0.0
  0
VERTEX
  5
29B
330
282
100
AcDbEntity
  8
Layer 1
 62
    40
370
    13
100
AcDbVertex
100
AcDb2dVertex
 10
458.3215581371862
 20
529.5186757157924
 30
0.0
  0
VERTEX
  5
29C
330
282
100
AcDbEntity
  8
Layer 1
 62
    40
370
    13
100
AcDbVertex
100
AcDb2dVertex
 10
459.1054465511612
 20
528.1611789035233
 30
0.0
  0
VERTEX
  5
29D
330
282
100
AcDbEntity
  8
Layer 1
 62
    40
370
    13
100
AcDbVertex
100
AcDb2dVertex
 10
460.0438044339562
 20
526.9384714521145
 30
0.0
  0
VERTEX
  5
29E
330
282
100
AcDbEntity
  8
Layer 1
 62
    40
370
    13
100
AcDbVertex
100
AcDb2dVertex
 10
461.0898215506651
 20
525.9115315516551
 30
0.0
  0
VERTEX
  5
29F
330
282
100
AcDbEntity
  8
Layer 1
 62
    40
370
    13
100
AcDbVertex
100
AcDb2dVertex
 10
462.1915200231545
 20
525.1325954624401
 30
0.0
  0
SEQEND
  5
2A0
330
282
100
AcDbEntity
  8
Layer 1
 62
    40
370
    13
  0
POLYLINE
  5
2A1
330
1E6
100
AcDbEntity
  8
Layer 1
 62
    40
370
    13
100
AcDb2dPolyline
 66
     1
 10
0.0
 20
0.0
 30
0.0
  0
VERTEX
  5
2A2
330
2A1
100
AcDbEntity
  8
Layer 1
 62
    40
370
    13
100
AcDbVertex
100
AcDb2dVertex
 10
462.1915200231545
 20
408.7755720404663
 30
0.0
  0
VERTEX
  5
2A3
330
2A1
100
AcDbEntity
  8
Layer 1
 62
    40
370
    13
100
AcDbVertex
100
AcDb2dVertex
 10
463.2929170497888
 20
408.2830956408498
 30
0.0
  0
VERTEX
  5
2A4
330
2A1
100
AcDbEntity
  8
Layer 1
 62
    40
370
    13
100
AcDbVertex
100
AcDb2dVertex
 10
464.3388911028042
 20
408.101754427245
 30
0.0
  0
VERTEX
  5
2A5
330
2A1
100
AcDbEntity
  8
Layer 1
 62
    40
370
    13
100
AcDbVertex
100
AcDb2dVertex
 10
465.2776365588413
 20
408.240742498228
 30
0.0
  0
VERTEX
  5
2A6
330
2A1
100
AcDbEntity
  8
Layer 1
 62
    40
370
    13
100
AcDbVertex
100
AcDb2dVertex
 10
466.0611373995742
 20
408.6933634494495
 30
0.0
  0
VERTEX
  5
2A7
330
2A1
100
AcDbEntity
  8
Layer 1
 62
    40
370
    13
100
AcDbVertex
100
AcDb2dVertex
 10
466.6509808103426
 20
409.4366643322389
 30
0.0
  0
VERTEX
  5
2A8
330
2A1
100
AcDbEntity
  8
Layer 1
 62
    40
370
    13
100
AcDbVertex
100
AcDb2dVertex
 10
467.0171944604246
 20
410.4336103701299
 30
0.0
  0
VERTEX
  5
2A9
330
2A1
100
AcDbEntity
  8
Layer 1
 62
    40
370
    13
100
AcDbVertex
100
AcDb2dVertex
 10
467.1410025794257
 20
411.633773977957
 30
0.0
  0
VERTEX
  5
2AA
330
2A1
100
AcDbEntity
  8
Layer 1
 62
    40
370
    13
100
AcDbVertex
100
AcDb2dVertex
 10
467.0171944604246
 20
412.9774904082852
 30
0.0
  0
VERTEX
  5
2AB
330
2A1
100
AcDbEntity
  8
Layer 1
 62
    40
370
    13
100
AcDbVertex
100
AcDb2dVertex
 10
466.6509808103426
 20
414.3967190252806
 30
0.0
  0
VERTEX
  5
2AC
330
2A1
100
AcDbEntity
  8
Layer 1
 62
    40
370
    13
100
AcDbVertex
100
AcDb2dVertex
 10
466.0611373995742
 20
415.8208784351893
 30
0.0
  0
VERTEX
  5
2AD
330
2A1
100
AcDbEntity
  8
Layer 1
 62
    40
370
    13
100
AcDbVertex
100
AcDb2dVertex
 10
465.2776365588413
 20
417.1783752474585
 30
0.0
  0
VERTEX
  5
2AE
330
2A1
100
AcDbEntity
  8
Layer 1
 62
    40
370
    13
100
AcDbVertex
100
AcDb2dVertex
 10
464.3388911028042
 20
418.401104230714
 30
0.0
  0
VERTEX
  5
2AF
330
2A1
100
AcDbEntity
  8
Layer 1
 62
    40
370
    13
100
AcDbVertex
100
AcDb2dVertex
 10
463.2929170497888
 20
419.4276780897781
 30
0.0
  0
VERTEX
  5
2B0
330
2A1
100
AcDbEntity
  8
Layer 1
 62
    40
370
    13
100
AcDbVertex
100
AcDb2dVertex
 10
462.1915200231545
 20
420.2069802203881
 30
0.0
  0
VERTEX
  5
2B1
330
2A1
100
AcDbEntity
  8
Layer 1
 62
    40
370
    13
100
AcDbVertex
100
AcDb2dVertex
 10
461.0898215506651
 20
420.6994566200045
 30
0.0
  0
VERTEX
  5
2B2
330
2A1
100
AcDbEntity
  8
Layer 1
 62
    40
370
    13
100
AcDbVertex
100
AcDb2dVertex
 10
460.0438044339562
 20
420.8807763017626
 30
0.0
  0
VERTEX
  5
2B3
330
2A1
100
AcDbEntity
  8
Layer 1
 62
    40
370
    13
100
AcDbVertex
100
AcDb2dVertex
 10
459.1054465511612
 20
420.7414221893843
 30
0.0
  0
VERTEX
  5
2B4
330
2A1
100
AcDbEntity
  8
Layer 1
 62
    40
370
    13
100
AcDbVertex
100
AcDb2dVertex
 10
458.3215581371862
 20
420.2891672795581
 30
0.0
  0
VERTEX
  5
2B5
330
2A1
100
AcDbEntity
  8
Layer 1
 62
    40
370
    13
100
AcDbVertex
100
AcDb2dVertex
 10
457.7317147264179
 20
419.5455218872204
 30
0.0
  0
VERTEX
  5
2B6
330
2A1
100
AcDbEntity
  8
Layer 1
 62
    40
370
    13
100
AcDbVertex
100
AcDb2dVertex
 10
457.3658886495779
 20
418.548920358878
 30
0.0
  0
VERTEX
  5
2B7
330
2A1
100
AcDbEntity
  8
Layer 1
 62
    40
370
    13
100
AcDbVertex
100
AcDb2dVertex
 10
457.2416929573346
 20
417.3487782828976
 30
0.0
  0
VERTEX
  5
2B8
330
2A1
100
AcDbEntity
  8
Layer 1
 62
    40
370
    13
100
AcDbVertex
100
AcDb2dVertex
 10
457.3658886495779
 20
416.0050403207227
 30
0.0
  0
VERTEX
  5
2B9
330
2A1
100
AcDbEntity
  8
Layer 1
 62
    40
370
    13
100
AcDbVertex
100
AcDb2dVertex
 10
457.7317147264179
 20
414.5858117037273
 30
0.0
  0
VERTEX
  5
2BA
330
2A1
100
AcDbEntity
  8
Layer 1
 62
    40
370
    13
100
AcDbVertex
100
AcDb2dVertex
 10
458.3215581371862
 20
413.1616522938186
 30
0.0
  0
VERTEX
  5
2BB
330
2A1
100
AcDbEntity
  8
Layer 1
 62
    40
370
    13
100
AcDbVertex
100
AcDb2dVertex
 10
459.1054465511612
 20
411.8041554815494
 30
0.0
  0
VERTEX
  5
2BC
330
2A1
100
AcDbEntity
  8
Layer 1
 62
    40
370
    13
100
AcDbVertex
100
AcDb2dVertex
 10
460.0438044339562
 20
410.5814264982939
 30
0.0
  0
VERTEX
  5
2BD
330
2A1
100
AcDbEntity
  8
Layer 1
 62
    40
370
    13
100
AcDbVertex
100
AcDb2dVertex
 10
461.0898215506651
 20
409.5544865978345
 30
0.0
  0
VERTEX
  5
2BE
330
2A1
100
AcDbEntity
  8
Layer 1
 62
    40
370
    13
100
AcDbVertex
100
AcDb2dVertex
 10
462.1915200231545
 20
408.7755720404663
 30
0.0
  0
SEQEND
  5
2BF
330
2A1
100
AcDbEntity
  8
Layer 1
 62
    40
370
    13
  0
POLYLINE
  5
2C0
330
1E6
100
AcDbEntity
  8
Layer 1
 62
    40
370
    13
100
AcDb2dPolyline
 66
     1
 10
0.0
 20
0.0
 30
0.0
  0
VERTEX
  5
2C1
330
2C0
100
AcDbEntity
  8
Layer 1
 62
    40
370
    13
100
AcDbVertex
100
AcDb2dVertex
 10
562.9540172852902
 20
350.6063836191362
 30
0.0
  0
VERTEX
  5
2C2
330
2C0
100
AcDbEntity
  8
Layer 1
 62
    40
370
    13
100
AcDbVertex
100
AcDb2dVertex
 10
564.0554143119246
 20
350.1139072195197
 30
0.0
  0
VERTEX
  5
2C3
330
2C0
100
AcDbEntity
  8
Layer 1
 62
    40
370
    13
100
AcDbVertex
100
AcDb2dVertex
 10
565.1017328744886
 20
349.9325875377617
 30
0.0
  0
VERTEX
  5
2C4
330
2C0
100
AcDbEntity
  8
Layer 1
 62
    40
370
    13
100
AcDbVertex
100
AcDb2dVertex
 10
566.0401338209771
 20
350.0719201182932
 30
0.0
  0
VERTEX
  5
2C5
330
2C0
100
AcDbEntity
  8
Layer 1
 62
    40
370
    13
100
AcDbVertex
100
AcDb2dVertex
 10
566.824022234952
 20
350.5245410695147
 30
0.0
  0
VERTEX
  5
2C6
330
2C0
100
AcDbEntity
  8
Layer 1
 62
    40
370
    13
100
AcDbVertex
100
AcDb2dVertex
 10
567.4138656457204
 20
351.2678419523041
 30
0.0
  0
VERTEX
  5
2C7
330
2C0
100
AcDbEntity
  8
Layer 1
 62
    40
370
    13
100
AcDbVertex
100
AcDb2dVertex
 10
567.7796917225604
 20
352.2644434806466
 30
0.0
  0
VERTEX
  5
2C8
330
2C0
100
AcDbEntity
  8
Layer 1
 62
    40
370
    13
100
AcDbVertex
100
AcDb2dVertex
 10
567.90384435111
 20
353.464585556627
 30
0.0
  0
VERTEX
  5
2C9
330
2C0
100
AcDbEntity
  8
Layer 1
 62
    40
370
    13
100
AcDbVertex
100
AcDb2dVertex
 10
567.7796917225604
 20
354.8083235188018
 30
0.0
  0
VERTEX
  5
2CA
330
2C0
100
AcDbEntity
  8
Layer 1
 62
    40
370
    13
100
AcDbVertex
100
AcDb2dVertex
 10
567.4138656457204
 20
356.2275521357973
 30
0.0
  0
VERTEX
  5
2CB
330
2C0
100
AcDbEntity
  8
Layer 1
 62
    40
370
    13
100
AcDbVertex
100
AcDb2dVertex
 10
566.824022234952
 20
357.651711545706
 30
0.0
  0
VERTEX
  5
2CC
330
2C0
100
AcDbEntity
  8
Layer 1
 62
    40
370
    13
100
AcDbVertex
100
AcDb2dVertex
 10
566.0401338209771
 20
359.0092083579752
 30
0.0
  0
VERTEX
  5
2CD
330
2C0
100
AcDbEntity
  8
Layer 1
 62
    40
370
    13
100
AcDbVertex
100
AcDb2dVertex
 10
565.1017328744886
 20
360.2322818507792
 30
0.0
  0
VERTEX
  5
2CE
330
2C0
100
AcDbEntity
  8
Layer 1
 62
    40
370
    13
100
AcDbVertex
100
AcDb2dVertex
 10
564.0554143119246
 20
361.2588557098433
 30
0.0
  0
VERTEX
  5
2CF
330
2C0
100
AcDbEntity
  8
Layer 1
 62
    40
370
    13
100
AcDbVertex
100
AcDb2dVertex
 10
562.9540172852902
 20
362.0377917990583
 30
0.0
  0
VERTEX
  5
2D0
330
2C0
100
AcDbEntity
  8
Layer 1
 62
    40
370
    13
100
AcDbVertex
100
AcDb2dVertex
 10
561.8526633223494
 20
362.5306342400701
 30
0.0
  0
VERTEX
  5
2D1
330
2C0
100
AcDbEntity
  8
Layer 1
 62
    40
370
    13
100
AcDbVertex
100
AcDb2dVertex
 10
560.806689269334
 20
362.7116094122796
 30
0.0
  0
VERTEX
  5
2D2
330
2C0
100
AcDbEntity
  8
Layer 1
 62
    40
370
    13
100
AcDbVertex
100
AcDb2dVertex
 10
559.867943813297
 20
362.5725998094497
 30
0.0
  0
VERTEX
  5
2D3
330
2C0
100
AcDbEntity
  8
Layer 1
 62
    40
370
    13
100
AcDbVertex
100
AcDb2dVertex
 10
559.084055399322
 20
362.1200003900751
 30
0.0
  0
VERTEX
  5
2D4
330
2C0
100
AcDbEntity
  8
Layer 1
 62
    40
370
    13
100
AcDbVertex
100
AcDb2dVertex
 10
558.4945564981022
 20
361.3766995072857
 30
0.0
  0
VERTEX
  5
2D5
330
2C0
100
AcDbEntity
  8
Layer 1
 62
    40
370
    13
100
AcDbVertex
100
AcDb2dVertex
 10
558.1283859117136
 20
360.3797319375479
 30
0.0
  0
VERTEX
  5
2D6
330
2C0
100
AcDbEntity
  8
Layer 1
 62
    40
370
    13
100
AcDbVertex
100
AcDb2dVertex
 10
558.0041902194704
 20
359.1795898615675
 30
0.0
  0
VERTEX
  5
2D7
330
2C0
100
AcDbEntity
  8
Layer 1
 62
    40
370
    13
100
AcDbVertex
100
AcDb2dVertex
 10
558.1283859117136
 20
357.8362179407879
 30
0.0
  0
VERTEX
  5
2D8
330
2C0
100
AcDbEntity
  8
Layer 1
 62
    40
370
    13
100
AcDbVertex
100
AcDb2dVertex
 10
558.4945564981022
 20
356.416644814244
 30
0.0
  0
VERTEX
  5
2D9
330
2C0
100
AcDbEntity
  8
Layer 1
 62
    40
370
    13
100
AcDbVertex
100
AcDb2dVertex
 10
559.084055399322
 20
354.9924638724884
 30
0.0
  0
VERTEX
  5
2DA
330
2C0
100
AcDbEntity
  8
Layer 1
 62
    40
370
    13
100
AcDbVertex
100
AcDb2dVertex
 10
559.867943813297
 20
353.6349885920661
 30
0.0
  0
VERTEX
  5
2DB
330
2C0
100
AcDbEntity
  8
Layer 1
 62
    40
370
    13
100
AcDbVertex
100
AcDb2dVertex
 10
560.806689269334
 20
352.4122596088106
 30
0.0
  0
VERTEX
  5
2DC
330
2C0
100
AcDbEntity
  8
Layer 1
 62
    40
370
    13
100
AcDbVertex
100
AcDb2dVertex
 10
561.8526633223494
 20
351.3856642178997
 30
0.0
  0
VERTEX
  5
2DD
330
2C0
100
AcDbEntity
  8
Layer 1
 62
    40
370
    13
100
AcDbVertex
100
AcDb2dVertex
 10
562.9540172852902
 20
350.6063836191362
 30
0.0
  0
SEQEND
  5
2DE
330
2C0
100
AcDbEntity
  8
Layer 1
 62
    40
370
    13
  0
POLYLINE
  5
2DF
330
1E6
100
AcDbEntity
  8
Layer 1
 62
    40
370
    13
100
AcDb2dPolyline
 66
     1
 10
0.0
 20
0.0
 30
0.0
  0
VERTEX
  5
2E0
330
2DF
100
AcDbEntity
  8
Layer 1
 62
    40
370
    13
100
AcDbVertex
100
AcDb2dVertex
 10
613.8658536847805
 20
321.215757270147
 30
0.0
  0
VERTEX
  5
2E1
330
2DF
100
AcDbEntity
  8
Layer 1
 62
    40
370
    13
100
AcDbVertex
100
AcDb2dVertex
 10
614.9672507114149
 20
320.7232808705306
 30
0.0
  0
VERTEX
  5
2E2
330
2DF
100
AcDbEntity
  8
Layer 1
 62
    40
370
    13
100
AcDbVertex
100
AcDb2dVertex
 10
616.0135262102852
 20
320.5419611887725
 30
0.0
  0
VERTEX
  5
2E3
330
2DF
100
AcDbEntity
  8
Layer 1
 62
    40
370
    13
100
AcDbVertex
100
AcDb2dVertex
 10
616.9519702204673
 20
320.6809492597556
 30
0.0
  0
VERTEX
  5
2E4
330
2DF
100
AcDbEntity
  8
Layer 1
 62
    40
370
    13
100
AcDbVertex
100
AcDb2dVertex
 10
617.7354710612002
 20
321.133570210977
 30
0.0
  0
VERTEX
  5
2E5
330
2DF
100
AcDbEntity
  8
Layer 1
 62
    40
370
    13
100
AcDbVertex
100
AcDb2dVertex
 10
618.325271408275
 20
321.8768710937665
 30
0.0
  0
VERTEX
  5
2E6
330
2DF
100
AcDbEntity
  8
Layer 1
 62
    40
370
    13
100
AcDbVertex
100
AcDb2dVertex
 10
618.691485058357
 20
322.8738171316575
 30
0.0
  0
VERTEX
  5
2E7
330
2DF
100
AcDbEntity
  8
Layer 1
 62
    40
370
    13
100
AcDbVertex
100
AcDb2dVertex
 10
618.8153362410518
 20
324.0739807394846
 30
0.0
  0
VERTEX
  5
2E8
330
2DF
100
AcDbEntity
  8
Layer 1
 62
    40
370
    13
100
AcDbVertex
100
AcDb2dVertex
 10
618.691485058357
 20
325.4176971698127
 30
0.0
  0
VERTEX
  5
2E9
330
2DF
100
AcDbEntity
  8
Layer 1
 62
    40
370
    13
100
AcDbVertex
100
AcDb2dVertex
 10
618.325271408275
 20
326.8369257868081
 30
0.0
  0
VERTEX
  5
2EA
330
2DF
100
AcDbEntity
  8
Layer 1
 62
    40
370
    13
100
AcDbVertex
100
AcDb2dVertex
 10
617.7354710612002
 20
328.2610851967169
 30
0.0
  0
VERTEX
  5
2EB
330
2DF
100
AcDbEntity
  8
Layer 1
 62
    40
370
    13
100
AcDbVertex
100
AcDb2dVertex
 10
616.9519702204673
 20
329.618582008986
 30
0.0
  0
VERTEX
  5
2EC
330
2DF
100
AcDbEntity
  8
Layer 1
 62
    40
370
    13
100
AcDbVertex
100
AcDb2dVertex
 10
616.0135262102852
 20
330.8413109922415
 30
0.0
  0
VERTEX
  5
2ED
330
2DF
100
AcDbEntity
  8
Layer 1
 62
    40
370
    13
100
AcDbVertex
100
AcDb2dVertex
 10
614.9672507114149
 20
331.8682508927009
 30
0.0
  0
VERTEX
  5
2EE
330
2DF
100
AcDbEntity
  8
Layer 1
 62
    40
370
    13
100
AcDbVertex
100
AcDb2dVertex
 10
613.8658536847805
 20
332.6471654500691
 30
0.0
  0
VERTEX
  5
2EF
330
2DF
100
AcDbEntity
  8
Layer 1
 62
    40
370
    13
100
AcDbVertex
100
AcDb2dVertex
 10
612.7644566581461
 20
333.1396633815324
 30
0.0
  0
VERTEX
  5
2F0
330
2DF
100
AcDbEntity
  8
Layer 1
 62
    40
370
    13
100
AcDbVertex
100
AcDb2dVertex
 10
611.7180950318885
 20
333.3209830632904
 30
0.0
  0
VERTEX
  5
2F1
330
2DF
100
AcDbEntity
  8
Layer 1
 62
    40
370
    13
100
AcDbVertex
100
AcDb2dVertex
 10
610.7797802127873
 20
333.1819949923074
 30
0.0
  0
VERTEX
  5
2F2
330
2DF
100
AcDbEntity
  8
Layer 1
 62
    40
370
    13
100
AcDbVertex
100
AcDb2dVertex
 10
609.9958917988122
 20
332.7293740410859
 30
0.0
  0
VERTEX
  5
2F3
330
2DF
100
AcDbEntity
  8
Layer 1
 62
    40
370
    13
100
AcDbVertex
100
AcDb2dVertex
 10
609.4060483880438
 20
331.9860731582964
 30
0.0
  0
VERTEX
  5
2F4
330
2DF
100
AcDbEntity
  8
Layer 1
 62
    40
370
    13
100
AcDbVertex
100
AcDb2dVertex
 10
609.0402223112039
 20
330.9891271204055
 30
0.0
  0
VERTEX
  5
2F5
330
2DF
100
AcDbEntity
  8
Layer 1
 62
    40
370
    13
100
AcDbVertex
100
AcDb2dVertex
 10
608.9160266189606
 20
329.7889635125784
 30
0.0
  0
VERTEX
  5
2F6
330
2DF
100
AcDbEntity
  8
Layer 1
 62
    40
370
    13
100
AcDbVertex
100
AcDb2dVertex
 10
609.0402223112039
 20
328.4452470822503
 30
0.0
  0
VERTEX
  5
2F7
330
2DF
100
AcDbEntity
  8
Layer 1
 62
    40
370
    13
100
AcDbVertex
100
AcDb2dVertex
 10
609.4060483880438
 20
327.0260184652548
 30
0.0
  0
VERTEX
  5
2F8
330
2DF
100
AcDbEntity
  8
Layer 1
 62
    40
370
    13
100
AcDbVertex
100
AcDb2dVertex
 10
609.9958917988122
 20
325.6018590553461
 30
0.0
  0
VERTEX
  5
2F9
330
2DF
100
AcDbEntity
  8
Layer 1
 62
    40
370
    13
100
AcDbVertex
100
AcDb2dVertex
 10
610.7797802127873
 20
324.244362243077
 30
0.0
  0
VERTEX
  5
2FA
330
2DF
100
AcDbEntity
  8
Layer 1
 62
    40
370
    13
100
AcDbVertex
100
AcDb2dVertex
 10
611.7180950318885
 20
323.0216332598214
 30
0.0
  0
VERTEX
  5
2FB
330
2DF
100
AcDbEntity
  8
Layer 1
 62
    40
370
    13
100
AcDbVertex
100
AcDb2dVertex
 10
612.7644566581461
 20
321.994693359362
 30
0.0
  0
VERTEX
  5
2FC
330
2DF
100
AcDbEntity
  8
Layer 1
 62
    40
370
    13
100
AcDbVertex
100
AcDb2dVertex
 10
613.8658536847805
 20
321.215757270147
 30
0.0
  0
SEQEND
  5
2FD
330
2DF
100
AcDbEntity
  8
Layer 1
 62
    40
370
    13
  0
POLYLINE
  5
2FE
330
1E6
100
AcDbEntity
  8
Layer 1
 62
    40
370
    13
100
AcDb2dPolyline
 66
     1
 10
0.0
 20
0.0
 30
0.0
  0
VERTEX
  5
2FF
330
2FE
100
AcDbEntity
  8
Layer 1
 62
    40
370
    13
100
AcDbVertex
100
AcDb2dVertex
 10
488.7077309540254
 20
429.803939649955
 30
0.0
  0
VERTEX
  5
300
330
2FE
100
AcDbEntity
  8
Layer 1
 62
    40
370
    13
100
AcDbVertex
100
AcDb2dVertex
 10
488.7077309540254
 20
593.1121669786484
 30
0.0
  0
SEQEND
  5
301
330
2FE
100
AcDbEntity
  8
Layer 1
 62
    40
370
    13
  0
POLYLINE
  5
302
330
1E6
100
AcDbEntity
  8
Layer 1
 62
    40
370
    13
100
AcDb2dPolyline
 66
     1
 10
0.0
 20
0.0
 30
0.0
  0
VERTEX
  5
303
330
302
100
AcDbEntity
  8
Layer 1
 62
    40
370
    13
100
AcDbVertex
100
AcDb2dVertex
 10
488.7077309540254
 20
593.1121669786484
 30
0.0
  0
VERTEX
  5
304
330
302
100
AcDbEntity
  8
Layer 1
 62
    40
370
    13
100
AcDbVertex
100
AcDb2dVertex
 10
435.6750076464285
 20
623.727309454176
 30
0.0
  0
SEQEND
  5
305
330
302
100
AcDbEntity
  8
Layer 1
 62
    40
370
    13
  0
POLYLINE
  5
306
330
1E6
100
AcDbEntity
  8
Layer 1
 62
    40
370
    13
100
AcDb2dPolyline
 66
     1
 10
0.0
 20
0.0
 30
0.0
  0
VERTEX
  5
307
330
306
100
AcDbEntity
  8
Layer 1
 62
    40
370
    13
100
AcDbVertex
100
AcDb2dVertex
 10
435.6750076464285
 20
623.727309454176
 30
0.0
  0
VERTEX
  5
308
330
306
100
AcDbEntity
  8
Layer 1
 62
    40
370
    13
100
AcDbVertex
100
AcDb2dVertex
 10
435.6750076464285
 20
399.1785910790526
 30
0.0
  0
SEQEND
  5
309
330
306
100
AcDbEntity
  8
Layer 1
 62
    40
370
    13
  0
POLYLINE
  5
30A
330
1E6
100
AcDbEntity
  8
Layer 1
 62
    40
370
    13
100
AcDb2dPolyline
 66
     1
 10
0.0
 20
0.0
 30
0.0
  0
VERTEX
  5
30B
330
30A
100
AcDbEntity
  8
Layer 1
 62
    40
370
    13
100
AcDbVertex
100
AcDb2dVertex
 10
435.6750076464285
 20
399.1785910790526
 30
0.0
  0
VERTEX
  5
30C
330
30A
100
AcDbEntity
  8
Layer 1
 62
    40
370
    13
100
AcDbVertex
100
AcDb2dVertex
 10
630.1292881967736
 20
286.9225985567965
 30
0.0
  0
SEQEND
  5
30D
330
30A
100
AcDbEntity
  8
Layer 1
 62
    40
370
    13
  0
POLYLINE
  5
30E
330
1E6
100
AcDbEntity
  8
Layer 1
 62
    40
370
    13
100
AcDb2dPolyline
 66
     1
 10
0.0
 20
0.0
 30
0.0
  0
VERTEX
  5
30F
330
30E
100
AcDbEntity
  8
Layer 1
 62
    40
370
    13
100
AcDbVertex
100
AcDb2dVertex
 10
630.1292881967736
 20
286.9225985567965
 30
0.0
  0
VERTEX
  5
310
330
30E
100
AcDbEntity
  8
Layer 1
 62
    40
370
    13
100
AcDbVertex
100
AcDb2dVertex
 10
630.1292881967736
 20
348.1630573054567
 30
0.0
  0
SEQEND
  5
311
330
30E
100
AcDbEntity
  8
Layer 1
 62
    40
370
    13
  0
POLYLINE
  5
312
330
1E6
100
AcDbEntity
  8
Layer 1
 62
    40
370
    13
100
AcDb2dPolyline
 66
     1
 10
0.0
 20
0.0
 30
0.0
  0
VERTEX
  5
313
330
312
100
AcDbEntity
  8
Layer 1
 62
    40
370
    13
100
AcDbVertex
100
AcDb2dVertex
 10
630.1292881967736
 20
348.1630573054567
 30
0.0
  0
VERTEX
  5
314
330
312
100
AcDbEntity
  8
Layer 1
 62
    40
370
    13
100
AcDbVertex
100
AcDb2dVertex
 10
488.7077309540254
 20
429.803939649955
 30
0.0
  0
SEQEND
  5
315
330
312
100
AcDbEntity
  8
Layer 1
 62
    40
370
    13
  0
ENDBLK
  5
1E9
330
1E6
100
AcDbEntity
  8
0
100
AcDbBlockEnd
  0
BLOCK
  5
318
330
316
100
AcDbEntity
  8
0
100
AcDbBlockBegin
  2
block 10
 70
     0
 10
0.0
 20
0.0
 30
0.0
  3
block 10
  1

  0
POLYLINE
  5
31A
330
316
100
AcDbEntity
  8
Layer 1
370
     0
100
AcDb2dPolyline
 66
     1
 10
0.0
 20
0.0
 30
0.0
  0
VERTEX
  5
31B
330
31A
100
AcDbEntity
  8
Layer 1
370
     0
100
AcDbVertex
100
AcDb2dVertex
 10
621.3356819706747
 20
279.8622793409837
 30
0.0
  0
VERTEX
  5
31C
330
31A
100
AcDbEntity
  8
Layer 1
370
     0
100
AcDbVertex
100
AcDb2dVertex
 10
621.3356819706747
 20
300.5040882838421
 30
0.0
  0
VERTEX
  5
31D
330
31A
100
AcDbEntity
  8
Layer 1
370
     0
100
AcDbVertex
100
AcDb2dVertex
 10
623.3118748683999
 20
300.5040882838421
 30
0.0
  0
VERTEX
  5
31E
330
31A
100
AcDbEntity
  8
Layer 1
370
     0
100
AcDbVertex
100
AcDb2dVertex
 10
623.3118748683999
 20
305.1618573798999
 30
0.0
  0
VERTEX
  5
31F
330
31A
100
AcDbEntity
  8
Layer 1
370
     0
100
AcDbVertex
100
AcDb2dVertex
 10
618.6541057723421
 20
305.1618573798999
 30
0.0
  0
VERTEX
  5
320
330
31A
100
AcDbEntity
  8
Layer 1
370
     0
100
AcDbVertex
100
AcDb2dVertex
 10
618.6541057723421
 20
300.5040882838421
 30
0.0
  0
VERTEX
  5
321
330
31A
100
AcDbEntity
  8
Layer 1
370
     0
100
AcDbVertex
100
AcDb2dVertex
 10
620.6301264152955
 20
300.5040882838421
 30
0.0
  0
VERTEX
  5
322
330
31A
100
AcDbEntity
  8
Layer 1
370
     0
100
AcDbVertex
100
AcDb2dVertex
 10
620.6301264152955
 20
279.1567237856045
 30
0.0
  0
VERTEX
  5
323
330
31A
100
AcDbEntity
  8
Layer 1
370
     0
100
AcDbVertex
100
AcDb2dVertex
 10
719.6855788644907
 20
279.1567237856045
 30
0.0
  0
VERTEX
  5
324
330
31A
100
AcDbEntity
  8
Layer 1
370
     0
100
AcDbVertex
100
AcDb2dVertex
 10
719.6855788644907
 20
279.8622793409837
 30
0.0
  0
VERTEX
  5
325
330
31A
100
AcDbEntity
  8
Layer 1
370
     0
100
AcDbVertex
100
AcDb2dVertex
 10
621.3356819706747
 20
279.8622793409837
 30
0.0
  0
SEQEND
  5
327
330
31A
100
AcDbEntity
  8
Layer 1
370
     0
  0
HATCH
  5
326
330
316
100
AcDbEntity
  8
Layer 1
 62
     7
100
AcDbHatch
 10
0.0
 20
0.0
 30
0.0
210
0.0
220
0.0
230
1.0
  2
SOLID
 70
     1
 71
     0
 91
        1
 92
        1
 93
       10
 72
     1
 10
621.3356819706747
 20
279.8622793409837
 11
621.3356819706747
 21
300.5040882838421
 72
     1
 10
621.3356819706747
 20
300.5040882838421
 11
623.3118748683999
 21
300.5040882838421
 72
     1
 10
623.3118748683999
 20
300.5040882838421
 11
623.3118748683999
 21
305.1618573798999
 72
     1
 10
623.3118748683999
 20
305.1618573798999
 11
618.6541057723421
 21
305.1618573798999
 72
     1
 10
618.6541057723421
 20
305.1618573798999
 11
618.6541057723421
 21
300.5040882838421
 72
     1
 10
618.6541057723421
 20
300.5040882838421
 11
620.6301264152955
 21
300.5040882838421
 72
     1
 10
620.6301264152955
 20
300.5040882838421
 11
620.6301264152955
 21
279.1567237856045
 72
     1
 10
620.6301264152955
 20
279.1567237856045
 11
719.6855788644907
 21
279.1567237856045
 72
     1
 10
719.6855788644907
 20
279.1567237856045
 11
719.6855788644907
 21
279.8622793409837
 72
     1
 10
719.6855788644907
 20
279.8622793409837
 11
621.3356819706747
 21
279.8622793409837
 97
        0
 75
     2
 76
     1
 98
        0
  0
INSERT
  5
329
330
316
100
AcDbEntity
  8
Layer 1
100
AcDbBlockReference
  2
block 11
 10
0.0
 20
0.0
 30
0.0
  0
ENDBLK
  5
319
330
316
100
AcDbEntity
  8
0
100
AcDbBlockEnd
  0
BLOCK
  5
32A
330
328
100
AcDbEntity
  8
0
100
AcDbBlockBegin
  2
block 11
 70
     0
 10
0.0
 20
0.0
 30
0.0
  3
block 11
  1

  0
SPLINE
  5
32C
330
328
100
AcDbEntity
  8
Layer 1
370
     0
100
AcDbSpline
210
0.0
220
0.0
230
1.0
 70
    11
 71
     3
 72
    26
 73
    22
 74
     0
 42
0.0000000001
 43
0.0000000001
 12
1.0
 22
0.0
 32
0.0
 13
1.0
 23
0.0
 33
0.0
 40
0.0
 40
0.0
 40
0.0
 40
0.0
 40
1.0
 40
1.0
 40
1.0
 40
2.0
 40
2.0
 40
2.0
 40
3.0
 40
3.0
 40
3.0
 40
4.0
 40
4.0
 40
4.0
 40
5.0
 40
5.0
 40
5.0
 40
6.0
 40
6.0
 40
6.0
 40
7.0
 40
7.0
 40
7.0
 40
7.0
 10
725.4310002526701
 20
282.3958549641233
 30
0.0
 10
726.6164576091445
 20
282.3958549641233
 30
0.0
 10
727.3023761202578
 20
281.7268174208878
 30
0.0
 10
727.3023761202578
 20
280.7022460235744
 30
0.0
 10
727.3023761202578
 20
280.0332084803389
 30
0.0
 10
726.8617484076943
 20
279.6098062452018
 30
0.0
 10
726.5572019667983
 20
279.4575330247537
 30
0.0
 10
726.9296167887537
 20
279.2880343268794
 30
0.0
 10
727.3953936983595
 20
278.9070067662108
 30
0.0
 10
727.3953936983595
 20
278.1029214799535
 30
0.0
 10
727.3953936983595
 20
276.9767197658253
 30
0.0
 10
726.6164576091445
 20
276.3669378649361
 30
0.0
 10
725.5408987986496
 20
276.3669378649361
 30
0.0
 10
725.5408987986496
 20
276.3669378649361
 30
0.0
 10
723.0177108652525
 20
276.3669378649361
 30
0.0
 10
723.0177108652525
 20
276.3669378649361
 30
0.0
 10
723.0177108652525
 20
276.3669378649361
 30
0.0
 10
723.0177108652525
 20
282.3958549641233
 30
0.0
 10
723.0177108652525
 20
282.3958549641233
 30
0.0
 10
723.0177108652525
 20
282.3958549641233
 30
0.0
 10
725.4310002526701
 20
282.3958549641233
 30
0.0
 10
725.4310002526701
 20
282.3958549641233
 30
0.0
  0
SPLINE
  5
32D
330
328
100
AcDbEntity
  8
Layer 1
370
     0
100
AcDbSpline
210
0.0
220
0.0
230
1.0
 70
    11
 71
     3
 72
    20
 73
    16
 74
     0
 42
0.0000000001
 43
0.0000000001
 12
1.0
 22
0.0
 32
0.0
 13
1.0
 23
0.0
 33
0.0
 40
0.0
 40
0.0
 40
0.0
 40
0.0
 40
1.0
 40
1.0
 40
1.0
 40
2.0
 40
2.0
 40
2.0
 40
3.0
 40
3.0
 40
3.0
 40
4.0
 40
4.0
 40
4.0
 40
5.0
 40
5.0
 40
5.0
 40
5.0
 10
724.1945554830139
 20
281.3457898602191
 30
0.0
 10
724.1945554830139
 20
281.3457898602191
 30
0.0
 10
724.1945554830139
 20
279.9488036409503
 30
0.0
 10
724.1945554830139
 20
279.9488036409503
 30
0.0
 10
724.1945554830139
 20
279.9488036409503
 30
0.0
 10
725.354863642446
 20
279.9488036409503
 30
0.0
 10
725.354863642446
 20
279.9488036409503
 30
0.0
 10
725.8544024878073
 20
279.9488036409503
 30
0.0
 10
726.1251869929479
 20
280.2282008848041
 30
0.0
 10
726.1251869929479
 20
280.6516031199413
 30
0.0
 10
726.1251869929479
 20
281.0663926163654
 30
0.0
 10
725.8544024878073
 20
281.3457898602191
 30
0.0
 10
725.354863642446
 20
281.3457898602191
 30
0.0
 10
725.354863642446
 20
281.3457898602191
 30
0.0
 10
724.1945554830139
 20
281.3457898602191
 30
0.0
 10
724.1945554830139
 20
281.3457898602191
 30
0.0
  0
SPLINE
  5
32E
330
328
100
AcDbEntity
  8
Layer 1
370
     0
100
AcDbSpline
210
0.0
220
0.0
230
1.0
 70
    11
 71
     3
 72
    20
 73
    16
 74
     0
 42
0.0000000001
 43
0.0000000001
 12
1.0
 22
0.0
 32
0.0
 13
1.0
 23
0.0
 33
0.0
 40
0.0
 40
0.0
 40
0.0
 40
0.0
 40
1.0
 40
1.0
 40
1.0
 40
2.0
 40
2.0
 40
2.0
 40
3.0
 40
3.0
 40
3.0
 40
4.0
 40
4.0
 40
4.0
 40
5.0
 40
5.0
 40
5.0
 40
5.0
 10
724.1945554830139
 20
278.8987385370461
 30
0.0
 10
724.1945554830139
 20
278.8987385370461
 30
0.0
 10
724.1945554830139
 20
277.4170029688402
 30
0.0
 10
724.1945554830139
 20
277.4170029688402
 30
0.0
 10
724.1945554830139
 20
277.4170029688402
 30
0.0
 10
725.4310002526701
 20
277.4170029688402
 30
0.0
 10
725.4310002526701
 20
277.4170029688402
 30
0.0
 10
725.9560328046222
 20
277.4170029688402
 30
0.0
 10
726.2185490805982
 20
277.7387748871625
 30
0.0
 10
726.2185490805982
 20
278.1621771222997
 30
0.0
 10
726.2185490805982
 20
278.5769666187238
 30
0.0
 10
725.9560328046222
 20
278.8987385370461
 30
0.0
 10
725.4310002526701
 20
278.8987385370461
 30
0.0
 10
725.4310002526701
 20
278.8987385370461
 30
0.0
 10
724.1945554830139
 20
278.8987385370461
 30
0.0
 10
724.1945554830139
 20
278.8987385370461
 30
0.0
  0
HATCH
  5
32F
330
328
100
AcDbEntity
  8
Layer 1
 62
     7
100
AcDbHatch
 10
0.0
 20
0.0
 30
0.0
210
0.0
220
0.0
230
1.0
  2
SOLID
 70
     1
 71
     0
 91
        3
 92
        1
 93
        1
 72
     4
 94
        3
 73
     0
 74
     1
 95
       26
 96
       22
 40
0.0
 40
0.0
 40
0.0
 40
0.0
 40
1.0
 40
1.0
 40
1.0
 40
2.0
 40
2.0
 40
2.0
 40
3.0
 40
3.0
 40
3.0
 40
4.0
 40
4.0
 40
4.0
 40
5.0
 40
5.0
 40
5.0
 40
6.0
 40
6.0
 40
6.0
 40
7.0
 40
7.0
 40
7.0
 40
7.0
 10
725.4310002526701
 20
282.3958549641233
 10
726.6164576091445
 20
282.3958549641233
 10
727.3023761202578
 20
281.7268174208878
 10
727.3023761202578
 20
280.7022460235744
 10
727.3023761202578
 20
280.0332084803389
 10
726.8617484076943
 20
279.6098062452018
 10
726.5572019667983
 20
279.4575330247537
 10
726.9296167887537
 20
279.2880343268794
 10
727.3953936983595
 20
278.9070067662108
 10
727.3953936983595
 20
278.1029214799535
 10
727.3953936983595
 20
276.9767197658253
 10
726.6164576091445
 20
276.3669378649361
 10
725.5408987986496
 20
276.3669378649361
 10
725.5408987986496
 20
276.3669378649361
 10
723.0177108652525
 20
276.3669378649361
 10
723.0177108652525
 20
276.3669378649361
 10
723.0177108652525
 20
276.3669378649361
 10
723.0177108652525
 20
282.3958549641233
 10
723.0177108652525
 20
282.3958549641233
 10
723.0177108652525
 20
282.3958549641233
 10
725.4310002526701
 20
282.3958549641233
 10
725.4310002526701
 20
282.3958549641233
 97
        0
 92
        1
 93
        1
 72
     4
 94
        3
 73
     0
 74
     1
 95
       20
 96
       16
 40
0.0
 40
0.0
 40
0.0
 40
0.0
 40
1.0
 40
1.0
 40
1.0
 40
2.0
 40
2.0
 40
2.0
 40
3.0
 40
3.0
 40
3.0
 40
4.0
 40
4.0
 40
4.0
 40
5.0
 40
5.0
 40
5.0
 40
5.0
 10
724.1945554830139
 20
281.3457898602191
 10
724.1945554830139
 20
281.3457898602191
 10
724.1945554830139
 20
279.9488036409503
 10
724.1945554830139
 20
279.9488036409503
 10
724.1945554830139
 20
279.9488036409503
 10
725.354863642446
 20
279.9488036409503
 10
725.354863642446
 20
279.9488036409503
 10
725.8544024878073
 20
279.9488036409503
 10
726.1251869929479
 20
280.2282008848041
 10
726.1251869929479
 20
280.6516031199413
 10
726.1251869929479
 20
281.0663926163654
 10
725.8544024878073
 20
281.3457898602191
 10
725.354863642446
 20
281.3457898602191
 10
725.354863642446
 20
281.3457898602191
 10
724.1945554830139
 20
281.3457898602191
 10
724.1945554830139
 20
281.3457898602191
 97
        0
 92
        1
 93
        1
 72
     4
 94
        3
 73
     0
 74
     1
 95
       20
 96
       16
 40
0.0
 40
0.0
 40
0.0
 40
0.0
 40
1.0
 40
1.0
 40
1.0
 40
2.0
 40
2.0
 40
2.0
 40
3.0
 40
3.0
 40
3.0
 40
4.0
 40
4.0
 40
4.0
 40
5.0
 40
5.0
 40
5.0
 40
5.0
 10
724.1945554830139
 20
278.8987385370461
 10
724.1945554830139
 20
278.8987385370461
 10
724.1945554830139
 20
277.4170029688402
 10
724.1945554830139
 20
277.4170029688402
 10
724.1945554830139
 20
277.4170029688402
 10
725.4310002526701
 20
277.4170029688402
 10
725.4310002526701
 20
277.4170029688402
 10
725.9560328046222
 20
277.4170029688402
 10
726.2185490805982
 20
277.7387748871625
 10
726.2185490805982
 20
278.1621771222997
 10
726.2185490805982
 20
278.5769666187238
 10
725.9560328046222
 20
278.8987385370461
 10
725.4310002526701
 20
278.8987385370461
 10
725.4310002526701
 20
278.8987385370461
 10
724.1945554830139
 20
278.8987385370461
 10
724.1945554830139
 20
278.8987385370461
 97
        0
 75
     2
 76
     1
 98
        0
  0
SPLINE
  5
330
330
328
100
AcDbEntity
  8
Layer 1
370
     0
100
AcDbSpline
210
0.0
220
0.0
230
1.0
 70
    11
 71
     3
 72
    29
 73
    25
 74
     0
 42
0.0000000001
 43
0.0000000001
 12
1.0
 22
0.0
 32
0.0
 13
1.0
 23
0.0
 33
0.0
 40
0.0
 40
0.0
 40
0.0
 40
0.0
 40
1.0
 40
1.0
 40
1.0
 40
2.0
 40
2.0
 40
2.0
 40
3.0
 40
3.0
 40
3.0
 40
4.0
 40
4.0
 40
4.0
 40
5.0
 40
5.0
 40
5.0
 40
6.0
 40
6.0
 40
6.0
 40
7.0
 40
7.0
 40
7.0
 40
8.0
 40
8.0
 40
8.0
 40
8.0
 10
732.187521518342
 20
281.8115667698249
 30
0.0
 10
732.7886906805181
 20
281.2186658368134
 30
0.0
 10
732.7969589096828
 20
280.5327473257001
 30
0.0
 10
732.7969589096828
 20
279.3813964145297
 30
0.0
 10
732.7969589096828
 20
278.2297009938106
 30
0.0
 10
732.7886906805181
 20
277.5437824826974
 30
0.0
 10
732.187521518342
 20
276.9512260592344
 30
0.0
 10
731.7723875123694
 20
276.5447047919749
 30
0.0
 10
731.2645804378436
 20
276.3162949613029
 30
0.0
 10
730.5700491880173
 20
276.3162949613029
 30
0.0
 10
729.8758624477395
 20
276.3162949613029
 30
0.0
 10
729.367710863665
 20
276.5447047919749
 30
0.0
 10
728.952921367241
 20
276.9512260592344
 30
0.0
 10
728.3517522050648
 20
277.5523952214105
 30
0.0
 10
728.3431394663518
 20
278.2297009938106
 30
0.0
 10
728.3431394663518
 20
279.3813964145297
 30
0.0
 10
728.3431394663518
 20
280.5327473257001
 30
0.0
 10
728.3517522050648
 20
281.2103976076488
 30
0.0
 10
728.952921367241
 20
281.8115667698249
 30
0.0
 10
729.367710863665
 20
282.2177435275358
 30
0.0
 10
729.8758624477395
 20
282.4464978677564
 30
0.0
 10
730.5700491880173
 20
282.4464978677564
 30
0.0
 10
731.2645804378436
 20
282.4464978677564
 30
0.0
 10
731.7723875123694
 20
282.2177435275358
 30
0.0
 10
732.187521518342
 20
281.8115667698249
 30
0.0
  0
SPLINE
  5
331
330
328
100
AcDbEntity
  8
Layer 1
370
     0
100
AcDbSpline
210
0.0
220
0.0
230
1.0
 70
    11
 71
     3
 72
    29
 73
    25
 74
     0
 42
0.0000000001
 43
0.0000000001
 12
1.0
 22
0.0
 32
0.0
 13
1.0
 23
0.0
 33
0.0
 40
0.0
 40
0.0
 40
0.0
 40
0.0
 40
1.0
 40
1.0
 40
1.0
 40
2.0
 40
2.0
 40
2.0
 40
3.0
 40
3.0
 40
3.0
 40
4.0
 40
4.0
 40
4.0
 40
5.0
 40
5.0
 40
5.0
 40
6.0
 40
6.0
 40
6.0
 40
7.0
 40
7.0
 40
7.0
 40
8.0
 40
8.0
 40
8.0
 40
8.0
 10
729.8166068053931
 20
281.0746608455299
 30
0.0
 10
729.5878524651725
 20
280.820757308267
 30
0.0
 10
729.519984084113
 20
280.5327473257001
 30
0.0
 10
729.519984084113
 20
279.3813964145297
 30
0.0
 10
729.519984084113
 20
278.2297009938106
 30
0.0
 10
729.5878524651725
 20
277.9503037499569
 30
0.0
 10
729.8166068053931
 20
277.696400212694
 30
0.0
 10
729.9857609937188
 20
277.5014078082288
 30
0.0
 10
730.2482772696949
 20
277.3660155556585
 30
0.0
 10
730.5700491880173
 20
277.3660155556585
 30
0.0
 10
730.8918211063395
 20
277.3660155556585
 30
0.0
 10
731.1543373823156
 20
277.5014078082288
 30
0.0
 10
731.32383608019
 20
277.696400212694
 30
0.0
 10
731.552245910862
 20
277.9503037499569
 30
0.0
 10
731.6201142919214
 20
278.2297009938106
 30
0.0
 10
731.6201142919214
 20
279.3813964145297
 30
0.0
 10
731.6201142919214
 20
280.5327473257001
 30
0.0
 10
731.552245910862
 20
280.820757308267
 30
0.0
 10
731.32383608019
 20
281.0746608455299
 30
0.0
 10
731.1543373823156
 20
281.2696532499951
 30
0.0
 10
730.8918211063395
 20
281.3964327638523
 30
0.0
 10
730.5700491880173
 20
281.3964327638523
 30
0.0
 10
730.2482772696949
 20
281.3964327638523
 30
0.0
 10
729.9857609937188
 20
281.2696532499951
 30
0.0
 10
729.8166068053931
 20
281.0746608455299
 30
0.0
  0
HATCH
  5
332
330
328
100
AcDbEntity
  8
Layer 1
 62
     7
100
AcDbHatch
 10
0.0
 20
0.0
 30
0.0
210
0.0
220
0.0
230
1.0
  2
SOLID
 70
     1
 71
     0
 91
        2
 92
        1
 93
        1
 72
     4
 94
        3
 73
     0
 74
     1
 95
       29
 96
       25
 40
0.0
 40
0.0
 40
0.0
 40
0.0
 40
1.0
 40
1.0
 40
1.0
 40
2.0
 40
2.0
 40
2.0
 40
3.0
 40
3.0
 40
3.0
 40
4.0
 40
4.0
 40
4.0
 40
5.0
 40
5.0
 40
5.0
 40
6.0
 40
6.0
 40
6.0
 40
7.0
 40
7.0
 40
7.0
 40
8.0
 40
8.0
 40
8.0
 40
8.0
 10
732.187521518342
 20
281.8115667698249
 10
732.7886906805181
 20
281.2186658368134
 10
732.7969589096828
 20
280.5327473257001
 10
732.7969589096828
 20
279.3813964145297
 10
732.7969589096828
 20
278.2297009938106
 10
732.7886906805181
 20
277.5437824826974
 10
732.187521518342
 20
276.9512260592344
 10
731.7723875123694
 20
276.5447047919749
 10
731.2645804378436
 20
276.3162949613029
 10
730.5700491880173
 20
276.3162949613029
 10
729.8758624477395
 20
276.3162949613029
 10
729.367710863665
 20
276.5447047919749
 10
728.952921367241
 20
276.9512260592344
 10
728.3517522050648
 20
277.5523952214105
 10
728.3431394663518
 20
278.2297009938106
 10
728.3431394663518
 20
279.3813964145297
 10
728.3431394663518
 20
280.5327473257001
 10
728.3517522050648
 20
281.2103976076488
 10
728.952921367241
 20
281.8115667698249
 10
729.367710863665
 20
282.2177435275358
 10
729.8758624477395
 20
282.4464978677564
 10
730.5700491880173
 20
282.4464978677564
 10
731.2645804378436
 20
282.4464978677564
 10
731.7723875123694
 20
282.2177435275358
 10
732.187521518342
 20
281.8115667698249
 97
        0
 92
        1
 93
        1
 72
     4
 94
        3
 73
     0
 74
     1
 95
       29
 96
       25
 40
0.0
 40
0.0
 40
0.0
 40
0.0
 40
1.0
 40
1.0
 40
1.0
 40
2.0
 40
2.0
 40
2.0
 40
3.0
 40
3.0
 40
3.0
 40
4.0
 40
4.0
 40
4.0
 40
5.0
 40
5.0
 40
5.0
 40
6.0
 40
6.0
 40
6.0
 40
7.0
 40
7.0
 40
7.0
 40
8.0
 40
8.0
 40
8.0
 40
8.0
 10
729.8166068053931
 20
281.0746608455299
 10
729.5878524651725
 20
280.820757308267
 10
729.519984084113
 20
280.5327473257001
 10
729.519984084113
 20
279.3813964145297
 10
729.519984084113
 20
278.2297009938106
 10
729.5878524651725
 20
277.9503037499569
 10
729.8166068053931
 20
277.696400212694
 10
729.9857609937188
 20
277.5014078082288
 10
730.2482772696949
 20
277.3660155556585
 10
730.5700491880173
 20
277.3660155556585
 10
730.8918211063395
 20
277.3660155556585
 10
731.1543373823156
 20
277.5014078082288
 10
731.32383608019
 20
277.696400212694
 10
731.552245910862
 20
277.9503037499569
 10
731.6201142919214
 20
278.2297009938106
 10
731.6201142919214
 20
279.3813964145297
 10
731.6201142919214
 20
280.5327473257001
 10
731.552245910862
 20
280.820757308267
 10
731.32383608019
 20
281.0746608455299
 10
731.1543373823156
 20
281.2696532499951
 10
730.8918211063395
 20
281.3964327638523
 10
730.5700491880173
 20
281.3964327638523
 10
730.2482772696949
 20
281.3964327638523
 10
729.9857609937188
 20
281.2696532499951
 10
729.8166068053931
 20
281.0746608455299
 97
        0
 75
     2
 76
     1
 98
        0
  0
POLYLINE
  5
333
330
328
100
AcDbEntity
  8
Layer 1
370
     0
100
AcDb2dPolyline
 66
     1
 10
0.0
 20
0.0
 30
0.0
  0
VERTEX
  5
334
330
333
100
AcDbEntity
  8
Layer 1
370
     0
100
AcDbVertex
100
AcDb2dVertex
 10
739.0877032657489
 20
276.3669378649361
 30
0.0
  0
VERTEX
  5
335
330
333
100
AcDbEntity
  8
Layer 1
370
     0
100
AcDbVertex
100
AcDb2dVertex
 10
738.0972383137396
 20
276.3669378649361
 30
0.0
  0
VERTEX
  5
336
330
333
100
AcDbEntity
  8
Layer 1
370
     0
100
AcDbVertex
100
AcDb2dVertex
 10
736.9879175674891
 20
280.0163275124612
 30
0.0
  0
VERTEX
  5
337
330
333
100
AcDbEntity
  8
Layer 1
370
     0
100
AcDbVertex
100
AcDb2dVertex
 10
735.8872095599519
 20
276.3669378649361
 30
0.0
  0
VERTEX
  5
338
330
333
100
AcDbEntity
  8
Layer 1
370
     0
100
AcDbVertex
100
AcDb2dVertex
 10
734.9050128371072
 20
276.3669378649361
 30
0.0
  0
VERTEX
  5
339
330
333
100
AcDbEntity
  8
Layer 1
370
     0
100
AcDbVertex
100
AcDb2dVertex
 10
733.2875405067823
 20
282.3958549641233
 30
0.0
  0
VERTEX
  5
33A
330
333
100
AcDbEntity
  8
Layer 1
370
     0
100
AcDbVertex
100
AcDb2dVertex
 10
734.5153725377254
 20
282.3958549641233
 30
0.0
  0
VERTEX
  5
33B
330
333
100
AcDbEntity
  8
Layer 1
370
     0
100
AcDbVertex
100
AcDb2dVertex
 10
735.446926356937
 20
278.6024603253147
 30
0.0
  0
VERTEX
  5
33C
330
333
100
AcDbEntity
  8
Layer 1
370
     0
100
AcDbVertex
100
AcDb2dVertex
 10
736.5562471031874
 20
282.3958549641233
 30
0.0
  0
VERTEX
  5
33D
330
333
100
AcDbEntity
  8
Layer 1
370
     0
100
AcDbVertex
100
AcDb2dVertex
 10
737.4282007705041
 20
282.3958549641233
 30
0.0
  0
VERTEX
  5
33E
330
333
100
AcDbEntity
  8
Layer 1
370
     0
100
AcDbVertex
100
AcDb2dVertex
 10
738.5375215167545
 20
278.6024603253147
 30
0.0
  0
VERTEX
  5
33F
330
333
100
AcDbEntity
  8
Layer 1
370
     0
100
AcDbVertex
100
AcDb2dVertex
 10
739.4687308264175
 20
282.3958549641233
 30
0.0
  0
VERTEX
  5
340
330
333
100
AcDbEntity
  8
Layer 1
370
     0
100
AcDbVertex
100
AcDb2dVertex
 10
740.6965628573606
 20
282.3958549641233
 30
0.0
  0
VERTEX
  5
341
330
333
100
AcDbEntity
  8
Layer 1
370
     0
100
AcDbVertex
100
AcDb2dVertex
 10
739.0877032657489
 20
276.3669378649361
 30
0.0
  0
SEQEND
  5
342
330
333
100
AcDbEntity
  8
Layer 1
370
     0
  0
HATCH
  5
343
330
328
100
AcDbEntity
  8
Layer 1
 62
     7
100
AcDbHatch
 10
0.0
 20
0.0
 30
0.0
210
0.0
220
0.0
230
1.0
  2
SOLID
 70
     1
 71
     0
 91
        1
 92
        1
 93
       13
 72
     1
 10
739.0877032657489
 20
276.3669378649361
 11
738.0972383137396
 21
276.3669378649361
 72
     1
 10
738.0972383137396
 20
276.3669378649361
 11
736.9879175674891
 21
280.0163275124612
 72
     1
 10
736.9879175674891
 20
280.0163275124612
 11
735.8872095599519
 21
276.3669378649361
 72
     1
 10
735.8872095599519
 20
276.3669378649361
 11
734.9050128371072
 21
276.3669378649361
 72
     1
 10
734.9050128371072
 20
276.3669378649361
 11
733.2875405067823
 21
282.3958549641233
 72
     1
 10
733.2875405067823
 20
282.3958549641233
 11
734.5153725377254
 21
282.3958549641233
 72
     1
 10
734.5153725377254
 20
282.3958549641233
 11
735.446926356937
 21
278.6024603253147
 72
     1
 10
735.446926356937
 20
278.6024603253147
 11
736.5562471031874
 21
282.3958549641233
 72
     1
 10
736.5562471031874
 20
282.3958549641233
 11
737.4282007705041
 21
282.3958549641233
 72
     1
 10
737.4282007705041
 20
282.3958549641233
 11
738.5375215167545
 21
278.6024603253147
 72
     1
 10
738.5375215167545
 20
278.6024603253147
 11
739.4687308264175
 21
282.3958549641233
 72
     1
 10
739.4687308264175
 20
282.3958549641233
 11
740.6965628573606
 21
282.3958549641233
 72
     1
 10
740.6965628573606
 20
282.3958549641233
 11
739.0877032657489
 21
276.3669378649361
 97
        0
 75
     2
 76
     1
 98
        0
  0
POLYLINE
  5
344
330
328
100
AcDbEntity
  8
Layer 1
370
     0
100
AcDb2dPolyline
 66
     1
 10
0.0
 20
0.0
 30
0.0
  0
VERTEX
  5
345
330
344
100
AcDbEntity
  8
Layer 1
370
     0
100
AcDbVertex
100
AcDb2dVertex
 10
746.9111706032028
 20
276.3669378649361
 30
0.0
  0
VERTEX
  5
346
330
344
100
AcDbEntity
  8
Layer 1
370
     0
100
AcDbVertex
100
AcDb2dVertex
 10
745.7343259854415
 20
276.3669378649361
 30
0.0
  0
VERTEX
  5
347
330
344
100
AcDbEntity
  8
Layer 1
370
     0
100
AcDbVertex
100
AcDb2dVertex
 10
745.7343259854415
 20
279.8723225211778
 30
0.0
  0
VERTEX
  5
348
330
344
100
AcDbEntity
  8
Layer 1
370
     0
100
AcDbVertex
100
AcDb2dVertex
 10
744.5826305647224
 20
277.7301621484494
 30
0.0
  0
VERTEX
  5
349
330
344
100
AcDbEntity
  8
Layer 1
370
     0
100
AcDbVertex
100
AcDb2dVertex
 10
743.7868135076297
 20
277.7301621484494
 30
0.0
  0
VERTEX
  5
34A
330
344
100
AcDbEntity
  8
Layer 1
370
     0
100
AcDbVertex
100
AcDb2dVertex
 10
742.6265053481976
 20
279.8723225211778
 30
0.0
  0
VERTEX
  5
34B
330
344
100
AcDbEntity
  8
Layer 1
370
     0
100
AcDbVertex
100
AcDb2dVertex
 10
742.6265053481976
 20
276.3669378649361
 30
0.0
  0
VERTEX
  5
34C
330
344
100
AcDbEntity
  8
Layer 1
370
     0
100
AcDbVertex
100
AcDb2dVertex
 10
741.4496607304362
 20
276.3669378649361
 30
0.0
  0
VERTEX
  5
34D
330
344
100
AcDbEntity
  8
Layer 1
370
     0
100
AcDbVertex
100
AcDb2dVertex
 10
741.4496607304362
 20
282.3958549641233
 30
0.0
  0
VERTEX
  5
34E
330
344
100
AcDbEntity
  8
Layer 1
370
     0
100
AcDbVertex
100
AcDb2dVertex
 10
742.6096243803198
 20
282.3958549641233
 30
0.0
  0
VERTEX
  5
34F
330
344
100
AcDbEntity
  8
Layer 1
370
     0
100
AcDbVertex
100
AcDb2dVertex
 10
744.184722036176
 20
279.2711533590017
 30
0.0
  0
VERTEX
  5
350
330
344
100
AcDbEntity
  8
Layer 1
370
     0
100
AcDbVertex
100
AcDb2dVertex
 10
745.7512069533192
 20
282.3958549641233
 30
0.0
  0
VERTEX
  5
351
330
344
100
AcDbEntity
  8
Layer 1
370
     0
100
AcDbVertex
100
AcDb2dVertex
 10
746.9111706032028
 20
282.3958549641233
 30
0.0
  0
VERTEX
  5
352
330
344
100
AcDbEntity
  8
Layer 1
370
     0
100
AcDbVertex
100
AcDb2dVertex
 10
746.9111706032028
 20
276.3669378649361
 30
0.0
  0
SEQEND
  5
353
330
344
100
AcDbEntity
  8
Layer 1
370
     0
  0
HATCH
  5
354
330
328
100
AcDbEntity
  8
Layer 1
 62
     7
100
AcDbHatch
 10
0.0
 20
0.0
 30
0.0
210
0.0
220
0.0
230
1.0
  2
SOLID
 70
     1
 71
     0
 91
        1
 92
        1
 93
       13
 72
     1
 10
746.9111706032028
 20
276.3669378649361
 11
745.7343259854415
 21
276.3669378649361
 72
     1
 10
745.7343259854415
 20
276.3669378649361
 11
745.7343259854415
 21
279.8723225211778
 72
     1
 10
745.7343259854415
 20
279.8723225211778
 11
744.5826305647224
 21
277.7301621484494
 72
     1
 10
744.5826305647224
 20
277.7301621484494
 11
743.7868135076297
 21
277.7301621484494
 72
     1
 10
743.7868135076297
 20
277.7301621484494
 11
742.6265053481976
 21
279.8723225211778
 72
     1
 10
742.6265053481976
 20
279.8723225211778
 11
742.6265053481976
 21
276.3669378649361
 72
     1
 10
742.6265053481976
 20
276.3669378649361
 11
741.4496607304362
 21
276.3669378649361
 72
     1
 10
741.4496607304362
 20
276.3669378649361
 11
741.4496607304362
 21
282.3958549641233
 72
     1
 10
741.4496607304362
 20
282.3958549641233
 11
742.6096243803198
 21
282.3958549641233
 72
     1
 10
742.6096243803198
 20
282.3958549641233
 11
744.184722036176
 21
279.2711533590017
 72
     1
 10
744.184722036176
 20
279.2711533590017
 11
745.7512069533192
 21
282.3958549641233
 72
     1
 10
745.7512069533192
 20
282.3958549641233
 11
746.9111706032028
 21
282.3958549641233
 72
     1
 10
746.9111706032028
 20
282.3958549641233
 11
746.9111706032028
 21
276.3669378649361
 97
        0
 75
     2
 76
     1
 98
        0
  0
POLYLINE
  5
355
330
328
100
AcDbEntity
  8
Layer 1
370
     0
100
AcDb2dPolyline
 66
     1
 10
0.0
 20
0.0
 30
0.0
  0
VERTEX
  5
356
330
355
100
AcDbEntity
  8
Layer 1
370
     0
100
AcDbVertex
100
AcDb2dVertex
 10
752.9731606190484
 20
276.3669378649361
 30
0.0
  0
VERTEX
  5
357
330
355
100
AcDbEntity
  8
Layer 1
370
     0
100
AcDbVertex
100
AcDb2dVertex
 10
751.7370603589408
 20
276.3669378649361
 30
0.0
  0
VERTEX
  5
358
330
355
100
AcDbEntity
  8
Layer 1
370
     0
100
AcDbVertex
100
AcDb2dVertex
 10
751.3811819953145
 20
277.4338839367179
 30
0.0
  0
VERTEX
  5
359
330
355
100
AcDbEntity
  8
Layer 1
370
     0
100
AcDbVertex
100
AcDb2dVertex
 10
749.2476343612992
 20
277.4338839367179
 30
0.0
  0
VERTEX
  5
35A
330
355
100
AcDbEntity
  8
Layer 1
370
     0
100
AcDbVertex
100
AcDb2dVertex
 10
748.8834877685083
 20
276.3669378649361
 30
0.0
  0
VERTEX
  5
35B
330
355
100
AcDbEntity
  8
Layer 1
370
     0
100
AcDbVertex
100
AcDb2dVertex
 10
747.6470429988522
 20
276.3669378649361
 30
0.0
  0
VERTEX
  5
35C
330
355
100
AcDbEntity
  8
Layer 1
370
     0
100
AcDbVertex
100
AcDb2dVertex
 10
749.8488035234753
 20
282.3958549641233
 30
0.0
  0
VERTEX
  5
35D
330
355
100
AcDbEntity
  8
Layer 1
370
     0
100
AcDbVertex
100
AcDb2dVertex
 10
750.7717446039737
 20
282.3958549641233
 30
0.0
  0
VERTEX
  5
35E
330
355
100
AcDbEntity
  8
Layer 1
370
     0
100
AcDbVertex
100
AcDb2dVertex
 10
752.9731606190484
 20
276.3669378649361
 30
0.0
  0
SEQEND
  5
35F
330
355
100
AcDbEntity
  8
Layer 1
370
     0
  0
POLYLINE
  5
360
330
328
100
AcDbEntity
  8
Layer 1
370
     0
100
AcDb2dPolyline
 66
     1
 10
0.0
 20
0.0
 30
0.0
  0
VERTEX
  5
361
330
360
100
AcDbEntity
  8
Layer 1
370
     0
100
AcDbVertex
100
AcDb2dVertex
 10
749.5694062796216
 20
278.4243488887273
 30
0.0
  0
VERTEX
  5
362
330
360
100
AcDbEntity
  8
Layer 1
370
     0
100
AcDbVertex
100
AcDb2dVertex
 10
751.0511418478276
 20
278.4243488887273
 30
0.0
  0
VERTEX
  5
363
330
360
100
AcDbEntity
  8
Layer 1
370
     0
100
AcDbVertex
100
AcDb2dVertex
 10
750.3142359235326
 20
280.6092284454727
 30
0.0
  0
VERTEX
  5
364
330
360
100
AcDbEntity
  8
Layer 1
370
     0
100
AcDbVertex
100
AcDb2dVertex
 10
749.5694062796216
 20
278.4243488887273
 30
0.0
  0
SEQEND
  5
365
330
360
100
AcDbEntity
  8
Layer 1
370
     0
  0
HATCH
  5
366
330
328
100
AcDbEntity
  8
Layer 1
 62
     7
100
AcDbHatch
 10
0.0
 20
0.0
 30
0.0
210
0.0
220
0.0
230
1.0
  2
SOLID
 70
     1
 71
     0
 91
        2
 92
        1
 93
        8
 72
     1
 10
752.9731606190484
 20
276.3669378649361
 11
751.7370603589408
 21
276.3669378649361
 72
     1
 10
751.7370603589408
 20
276.3669378649361
 11
751.3811819953145
 21
277.4338839367179
 72
     1
 10
751.3811819953145
 20
277.4338839367179
 11
749.2476343612992
 21
277.4338839367179
 72
     1
 10
749.2476343612992
 20
277.4338839367179
 11
748.8834877685083
 21
276.3669378649361
 72
     1
 10
748.8834877685083
 20
276.3669378649361
 11
747.6470429988522
 21
276.3669378649361
 72
     1
 10
747.6470429988522
 20
276.3669378649361
 11
749.8488035234753
 21
282.3958549641233
 72
     1
 10
749.8488035234753
 20
282.3958549641233
 11
750.7717446039737
 21
282.3958549641233
 72
     1
 10
750.7717446039737
 20
282.3958549641233
 11
752.9731606190484
 21
276.3669378649361
 97
        0
 92
        1
 93
        3
 72
     1
 10
749.5694062796216
 20
278.4243488887273
 11
751.0511418478276
 21
278.4243488887273
 72
     1
 10
751.0511418478276
 20
278.4243488887273
 11
750.3142359235326
 21
280.6092284454727
 72
     1
 10
750.3142359235326
 20
280.6092284454727
 11
749.5694062796216
 21
278.4243488887273
 97
        0
 75
     2
 76
     1
 98
        0
  0
SPLINE
  5
367
330
328
100
AcDbEntity
  8
Layer 1
370
     0
100
AcDbSpline
210
0.0
220
0.0
230
1.0
 70
    11
 71
     3
 72
    47
 73
    43
 74
     0
 42
0.0000000001
 43
0.0000000001
 12
1.0
 22
0.0
 32
0.0
 13
1.0
 23
0.0
 33
0.0
 40
0.0
 40
0.0
 40
0.0
 40
0.0
 40
1.0
 40
1.0
 40
1.0
 40
2.0
 40
2.0
 40
2.0
 40
3.0
 40
3.0
 40
3.0
 40
4.0
 40
4.0
 40
4.0
 40
5.0
 40
5.0
 40
5.0
 40
6.0
 40
6.0
 40
6.0
 40
7.0
 40
7.0
 40
7.0
 40
8.0
 40
8.0
 40
8.0
 40
9.0
 40
9.0
 40
9.0
 40
10.0
 40
10.0
 40
10.0
 40
11.0
 40
11.0
 40
11.0
 40
12.0
 40
12.0
 40
12.0
 40
13.0
 40
13.0
 40
13.0
 40
14.0
 40
14.0
 40
14.0
 40
14.0
 10
757.8583060171327
 20
280.5413600644133
 30
0.0
 10
757.8583060171327
 20
280.5413600644133
 30
0.0
 10
756.6645804314936
 20
280.5413600644133
 30
0.0
 10
756.6645804314936
 20
280.5413600644133
 30
0.0
 10
756.5457246372525
 20
281.0326306806099
 30
0.0
 10
756.2325654576433
 20
281.3964327638523
 30
0.0
 10
755.6482772633449
 20
281.3964327638523
 30
0.0
 10
755.3265053450226
 20
281.3964327638523
 30
0.0
 10
755.0639890690466
 20
281.2779214791597
 30
0.0
 10
754.8948348807207
 20
281.0832735842431
 30
0.0
 10
754.6746932792133
 20
280.8293700469802
 30
0.0
 10
754.5982121594408
 20
280.5327473257001
 30
0.0
 10
754.5982121594408
 20
279.3813964145297
 30
0.0
 10
754.5982121594408
 20
278.2297009938106
 30
0.0
 10
754.6746932792133
 20
277.9334227820792
 30
0.0
 10
754.8948348807207
 20
277.6795192448162
 30
0.0
 10
755.0639890690466
 20
277.4845268403511
 30
0.0
 10
755.3265053450226
 20
277.3660155556585
 30
0.0
 10
755.6482772633449
 20
277.3660155556585
 30
0.0
 10
756.2325654576433
 20
277.3660155556585
 30
0.0
 10
756.5457246372525
 20
277.7301621484494
 30
0.0
 10
756.6645804314936
 20
278.2214327646461
 30
0.0
 10
756.6645804314936
 20
278.2214327646461
 30
0.0
 10
757.8583060171327
 20
278.2214327646461
 30
0.0
 10
757.8583060171327
 20
278.2214327646461
 30
0.0
 10
757.6467771543383
 20
276.959494288399
 30
0.0
 10
756.7744789774731
 20
276.3162949613029
 30
0.0
 10
755.6482772633449
 20
276.3162949613029
 30
0.0
 10
754.9540905230671
 20
276.3162949613029
 30
0.0
 10
754.4459389389928
 20
276.5447047919749
 30
0.0
 10
754.0311494425687
 20
276.9512260592344
 30
0.0
 10
753.4299802803926
 20
277.5523952214105
 30
0.0
 10
753.4213675416794
 20
278.2297009938106
 30
0.0
 10
753.4213675416794
 20
279.3813964145297
 30
0.0
 10
753.4213675416794
 20
280.5327473257001
 30
0.0
 10
753.4299802803926
 20
281.2103976076488
 30
0.0
 10
754.0311494425687
 20
281.8115667698249
 30
0.0
 10
754.4459389389928
 20
282.2177435275358
 30
0.0
 10
754.9540905230671
 20
282.4464978677564
 30
0.0
 10
755.6482772633449
 20
282.4464978677564
 30
0.0
 10
756.7744789774731
 20
282.4464978677564
 30
0.0
 10
757.6467771543383
 20
281.8029540311118
 30
0.0
 10
757.8583060171327
 20
280.5413600644133
 30
0.0
  0
HATCH
  5
368
330
328
100
AcDbEntity
  8
Layer 1
 62
     7
100
AcDbHatch
 10
0.0
 20
0.0
 30
0.0
210
0.0
220
0.0
230
1.0
  2
SOLID
 70
     1
 71
     0
 91
        1
 92
        1
 93
        1
 72
     4
 94
        3
 73
     0
 74
     1
 95
       47
 96
       43
 40
0.0
 40
0.0
 40
0.0
 40
0.0
 40
1.0
 40
1.0
 40
1.0
 40
2.0
 40
2.0
 40
2.0
 40
3.0
 40
3.0
 40
3.0
 40
4.0
 40
4.0
 40
4.0
 40
5.0
 40
5.0
 40
5.0
 40
6.0
 40
6.0
 40
6.0
 40
7.0
 40
7.0
 40
7.0
 40
8.0
 40
8.0
 40
8.0
 40
9.0
 40
9.0
 40
9.0
 40
10.0
 40
10.0
 40
10.0
 40
11.0
 40
11.0
 40
11.0
 40
12.0
 40
12.0
 40
12.0
 40
13.0
 40
13.0
 40
13.0
 40
14.0
 40
14.0
 40
14.0
 40
14.0
 10
757.8583060171327
 20
280.5413600644133
 10
757.8583060171327
 20
280.5413600644133
 10
756.6645804314936
 20
280.5413600644133
 10
756.6645804314936
 20
280.5413600644133
 10
756.5457246372525
 20
281.0326306806099
 10
756.2325654576433
 20
281.3964327638523
 10
755.6482772633449
 20
281.3964327638523
 10
755.3265053450226
 20
281.3964327638523
 10
755.0639890690466
 20
281.2779214791597
 10
754.8948348807207
 20
281.0832735842431
 10
754.6746932792133
 20
280.8293700469802
 10
754.5982121594408
 20
280.5327473257001
 10
754.5982121594408
 20
279.3813964145297
 10
754.5982121594408
 20
278.2297009938106
 10
754.6746932792133
 20
277.9334227820792
 10
754.8948348807207
 20
277.6795192448162
 10
755.0639890690466
 20
277.4845268403511
 10
755.3265053450226
 20
277.3660155556585
 10
755.6482772633449
 20
277.3660155556585
 10
756.2325654576433
 20
277.3660155556585
 10
756.5457246372525
 20
277.7301621484494
 10
756.6645804314936
 20
278.2214327646461
 10
756.6645804314936
 20
278.2214327646461
 10
757.8583060171327
 20
278.2214327646461
 10
757.8583060171327
 20
278.2214327646461
 10
757.6467771543383
 20
276.959494288399
 10
756.7744789774731
 20
276.3162949613029
 10
755.6482772633449
 20
276.3162949613029
 10
754.9540905230671
 20
276.3162949613029
 10
754.4459389389928
 20
276.5447047919749
 10
754.0311494425687
 20
276.9512260592344
 10
753.4299802803926
 20
277.5523952214105
 10
753.4213675416794
 20
278.2297009938106
 10
753.4213675416794
 20
279.3813964145297
 10
753.4213675416794
 20
280.5327473257001
 10
753.4299802803926
 20
281.2103976076488
 10
754.0311494425687
 20
281.8115667698249
 10
754.4459389389928
 20
282.2177435275358
 10
754.9540905230671
 20
282.4464978677564
 10
755.6482772633449
 20
282.4464978677564
 10
756.7744789774731
 20
282.4464978677564
 10
757.6467771543383
 20
281.8029540311118
 10
757.8583060171327
 20
280.5413600644133
 97
        0
 75
     2
 76
     1
 98
        0
  0
SPLINE
  5
369
330
328
100
AcDbEntity
  8
Layer 1
370
     0
100
AcDbSpline
210
0.0
220
0.0
230
1.0
 70
    11
 71
     3
 72
    17
 73
    13
 74
     0
 42
0.0000000001
 43
0.0000000001
 12
1.0
 22
0.0
 32
0.0
 13
1.0
 23
0.0
 33
0.0
 40
0.0
 40
0.0
 40
0.0
 40
0.0
 40
1.0
 40
1.0
 40
1.0
 40
2.0
 40
2.0
 40
2.0
 40
3.0
 40
3.0
 40
3.0
 40
4.0
 40
4.0
 40
4.0
 40
4.0
 10
758.462231255697
 20
280.9437472170904
 30
0.0
 10
758.462231255697
 20
281.9307670736146
 30
0.0
 10
759.262182427372
 20
282.7307182452896
 30
0.0
 10
760.249202283896
 20
282.7307182452896
 30
0.0
 10
761.2365666499687
 20
282.7307182452896
 30
0.0
 10
762.0361733120951
 20
281.9307670736146
 30
0.0
 10
762.0361733120951
 20
280.9437472170904
 30
0.0
 10
762.0361733120951
 20
279.9563828510178
 30
0.0
 10
761.2365666499687
 20
279.1567761888914
 30
0.0
 10
760.249202283896
 20
279.1567761888914
 30
0.0
 10
759.262182427372
 20
279.1567761888914
 30
0.0
 10
758.462231255697
 20
279.9563828510178
 30
0.0
 10
758.462231255697
 20
280.9437472170904
 30
0.0
  0
SPLINE
  5
36A
330
328
100
AcDbEntity
  8
Layer 1
370
     0
100
AcDbSpline
210
0.0
220
0.0
230
1.0
 70
    11
 71
     3
 72
    17
 73
    13
 74
     0
 42
0.0000000001
 43
0.0000000001
 12
1.0
 22
0.0
 32
0.0
 13
1.0
 23
0.0
 33
0.0
 40
0.0
 40
0.0
 40
0.0
 40
0.0
 40
1.0
 40
1.0
 40
1.0
 40
2.0
 40
2.0
 40
2.0
 40
3.0
 40
3.0
 40
3.0
 40
4.0
 40
4.0
 40
4.0
 40
4.0
 10
761.6117375483124
 20
280.9437472170904
 30
0.0
 10
761.6117375483124
 20
281.7385307455376
 30
0.0
 10
761.0191811248494
 20
282.330742659452
 30
0.0
 10
760.249202283896
 20
282.330742659452
 30
0.0
 10
759.4792234429427
 20
282.330742659452
 30
0.0
 10
758.8870115290283
 20
281.7385307455376
 30
0.0
 10
758.8870115290283
 20
280.9437472170904
 30
0.0
 10
758.8870115290283
 20
280.1489636886433
 30
0.0
 10
759.4792234429427
 20
279.5567517747289
 30
0.0
 10
760.249202283896
 20
279.5567517747289
 30
0.0
 10
761.0191811248494
 20
279.5567517747289
 30
0.0
 10
761.6117375483124
 20
280.1489636886433
 30
0.0
 10
761.6117375483124
 20
280.9437472170904
 30
0.0
  0
SPLINE
  5
36B
330
328
100
AcDbEntity
  8
Layer 1
370
     0
100
AcDbSpline
210
0.0
220
0.0
230
1.0
 70
    11
 71
     3
 72
    35
 73
    31
 74
     0
 42
0.0000000001
 43
0.0000000001
 12
1.0
 22
0.0
 32
0.0
 13
1.0
 23
0.0
 33
0.0
 40
0.0
 40
0.0
 40
0.0
 40
0.0
 40
1.0
 40
1.0
 40
1.0
 40
2.0
 40
2.0
 40
2.0
 40
3.0
 40
3.0
 40
3.0
 40
4.0
 40
4.0
 40
4.0
 40
5.0
 40
5.0
 40
5.0
 40
6.0
 40
6.0
 40
6.0
 40
7.0
 40
7.0
 40
7.0
 40
8.0
 40
8.0
 40
8.0
 40
9.0
 40
9.0
 40
9.0
 40
10.0
 40
10.0
 40
10.0
 40
10.0
 10
759.5977347276353
 20
281.8963161187621
 30
0.0
 10
759.5977347276353
 20
281.8963161187621
 30
0.0
 10
760.372536702268
 20
281.8963161187621
 30
0.0
 10
760.372536702268
 20
281.8963161187621
 30
0.0
 10
760.757698377519
 20
281.8963161187621
 30
0.0
 10
761.0043672142629
 20
281.6148518176171
 30
0.0
 10
761.0043672142629
 20
281.2989365616197
 30
0.0
 10
761.0043672142629
 20
281.0374538142893
 30
0.0
 10
760.8365910641312
 20
280.8696776641576
 30
0.0
 10
760.6540010034129
 20
280.7956081112247
 30
0.0
 10
760.6540010034129
 20
280.7956081112247
 30
0.0
 10
761.0539765892504
 20
279.9960014490982
 30
0.0
 10
761.0539765892504
 20
279.9960014490982
 30
0.0
 10
761.0539765892504
 20
279.9960014490982
 30
0.0
 10
760.5699406735728
 20
279.9960014490982
 30
0.0
 10
760.5699406735728
 20
279.9960014490982
 30
0.0
 10
760.5699406735728
 20
279.9960014490982
 30
0.0
 10
760.2247421059508
 20
280.7315293351991
 30
0.0
 10
760.2247421059508
 20
280.7315293351991
 30
0.0
 10
760.2247421059508
 20
280.7315293351991
 30
0.0
 10
760.0221704914181
 20
280.7315293351991
 30
0.0
 10
760.0221704914181
 20
280.7315293351991
 30
0.0
 10
760.0221704914181
 20
280.7315293351991
 30
0.0
 10
760.0221704914181
 20
279.9960014490982
 30
0.0
 10
760.0221704914181
 20
279.9960014490982
 30
0.0
 10
760.0221704914181
 20
279.9960014490982
 30
0.0
 10
759.5977347276353
 20
279.9960014490982
 30
0.0
 10
759.5977347276353
 20
279.9960014490982
 30
0.0
 10
759.5977347276353
 20
279.9960014490982
 30
0.0
 10
759.5977347276353
 20
281.8963161187621
 30
0.0
 10
759.5977347276353
 20
281.8963161187621
 30
0.0
  0
SPLINE
  5
36C
330
328
100
AcDbEntity
  8
Layer 1
370
     0
100
AcDbSpline
210
0.0
220
0.0
230
1.0
 70
    11
 71
     3
 72
    20
 73
    16
 74
     0
 42
0.0000000001
 43
0.0000000001
 12
1.0
 22
0.0
 32
0.0
 13
1.0
 23
0.0
 33
0.0
 40
0.0
 40
0.0
 40
0.0
 40
0.0
 40
1.0
 40
1.0
 40
1.0
 40
2.0
 40
2.0
 40
2.0
 40
3.0
 40
3.0
 40
3.0
 40
4.0
 40
4.0
 40
4.0
 40
5.0
 40
5.0
 40
5.0
 40
5.0
 10
760.3184487031496
 20
281.0522677248758
 30
0.0
 10
760.476234076374
 20
281.0522677248758
 30
0.0
 10
760.5799314504801
 20
281.1659558758891
 30
0.0
 10
760.5799314504801
 20
281.2989365616197
 30
0.0
 10
760.5799314504801
 20
281.4322617568989
 30
0.0
 10
760.476234076374
 20
281.5459499079121
 30
0.0
 10
760.3184487031496
 20
281.5459499079121
 30
0.0
 10
760.3184487031496
 20
281.5459499079121
 30
0.0
 10
760.0221704914181
 20
281.5459499079121
 30
0.0
 10
760.0221704914181
 20
281.5459499079121
 30
0.0
 10
760.0221704914181
 20
281.5459499079121
 30
0.0
 10
760.0221704914181
 20
281.0522677248758
 30
0.0
 10
760.0221704914181
 20
281.0522677248758
 30
0.0
 10
760.0221704914181
 20
281.0522677248758
 30
0.0
 10
760.3184487031496
 20
281.0522677248758
 30
0.0
 10
760.3184487031496
 20
281.0522677248758
 30
0.0
  0
HATCH
  5
36D
330
328
100
AcDbEntity
  8
Layer 1
 62
     7
100
AcDbHatch
 10
0.0
 20
0.0
 30
0.0
210
0.0
220
0.0
230
1.0
  2
SOLID
 70
     1
 71
     0
 91
        4
 92
        1
 93
        1
 72
     4
 94
        3
 73
     0
 74
     1
 95
       17
 96
       13
 40
0.0
 40
0.0
 40
0.0
 40
0.0
 40
1.0
 40
1.0
 40
1.0
 40
2.0
 40
2.0
 40
2.0
 40
3.0
 40
3.0
 40
3.0
 40
4.0
 40
4.0
 40
4.0
 40
4.0
 10
758.462231255697
 20
280.9437472170904
 10
758.462231255697
 20
281.9307670736146
 10
759.262182427372
 20
282.7307182452896
 10
760.249202283896
 20
282.7307182452896
 10
761.2365666499687
 20
282.7307182452896
 10
762.0361733120951
 20
281.9307670736146
 10
762.0361733120951
 20
280.9437472170904
 10
762.0361733120951
 20
279.9563828510178
 10
761.2365666499687
 20
279.1567761888914
 10
760.249202283896
 20
279.1567761888914
 10
759.262182427372
 20
279.1567761888914
 10
758.462231255697
 20
279.9563828510178
 10
758.462231255697
 20
280.9437472170904
 97
        0
 92
        1
 93
        1
 72
     4
 94
        3
 73
     0
 74
     1
 95
       17
 96
       13
 40
0.0
 40
0.0
 40
0.0
 40
0.0
 40
1.0
 40
1.0
 40
1.0
 40
2.0
 40
2.0
 40
2.0
 40
3.0
 40
3.0
 40
3.0
 40
4.0
 40
4.0
 40
4.0
 40
4.0
 10
761.6117375483124
 20
280.9437472170904
 10
761.6117375483124
 20
281.7385307455376
 10
761.0191811248494
 20
282.330742659452
 10
760.249202283896
 20
282.330742659452
 10
759.4792234429427
 20
282.330742659452
 10
758.8870115290283
 20
281.7385307455376
 10
758.8870115290283
 20
280.9437472170904
 10
758.8870115290283
 20
280.1489636886433
 10
759.4792234429427
 20
279.5567517747289
 10
760.249202283896
 20
279.5567517747289
 10
761.0191811248494
 20
279.5567517747289
 10
761.6117375483124
 20
280.1489636886433
 10
761.6117375483124
 20
280.9437472170904
 97
        0
 92
        1
 93
        1
 72
     4
 94
        3
 73
     0
 74
     1
 95
       35
 96
       31
 40
0.0
 40
0.0
 40
0.0
 40
0.0
 40
1.0
 40
1.0
 40
1.0
 40
2.0
 40
2.0
 40
2.0
 40
3.0
 40
3.0
 40
3.0
 40
4.0
 40
4.0
 40
4.0
 40
5.0
 40
5.0
 40
5.0
 40
6.0
 40
6.0
 40
6.0
 40
7.0
 40
7.0
 40
7.0
 40
8.0
 40
8.0
 40
8.0
 40
9.0
 40
9.0
 40
9.0
 40
10.0
 40
10.0
 40
10.0
 40
10.0
 10
759.5977347276353
 20
281.8963161187621
 10
759.5977347276353
 20
281.8963161187621
 10
760.372536702268
 20
281.8963161187621
 10
760.372536702268
 20
281.8963161187621
 10
760.757698377519
 20
281.8963161187621
 10
761.0043672142629
 20
281.6148518176171
 10
761.0043672142629
 20
281.2989365616197
 10
761.0043672142629
 20
281.0374538142893
 10
760.8365910641312
 20
280.8696776641576
 10
760.6540010034129
 20
280.7956081112247
 10
760.6540010034129
 20
280.7956081112247
 10
761.0539765892504
 20
279.9960014490982
 10
761.0539765892504
 20
279.9960014490982
 10
761.0539765892504
 20
279.9960014490982
 10
760.5699406735728
 20
279.9960014490982
 10
760.5699406735728
 20
279.9960014490982
 10
760.5699406735728
 20
279.9960014490982
 10
760.2247421059508
 20
280.7315293351991
 10
760.2247421059508
 20
280.7315293351991
 10
760.2247421059508
 20
280.7315293351991
 10
760.0221704914181
 20
280.7315293351991
 10
760.0221704914181
 20
280.7315293351991
 10
760.0221704914181
 20
280.7315293351991
 10
760.0221704914181
 20
279.9960014490982
 10
760.0221704914181
 20
279.9960014490982
 10
760.0221704914181
 20
279.9960014490982
 10
759.5977347276353
 20
279.9960014490982
 10
759.5977347276353
 20
279.9960014490982
 10
759.5977347276353
 20
279.9960014490982
 10
759.5977347276353
 20
281.8963161187621
 10
759.5977347276353
 20
281.8963161187621
 97
        0
 92
        1
 93
        1
 72
     4
 94
        3
 73
     0
 74
     1
 95
       20
 96
       16
 40
0.0
 40
0.0
 40
0.0
 40
0.0
 40
1.0
 40
1.0
 40
1.0
 40
2.0
 40
2.0
 40
2.0
 40
3.0
 40
3.0
 40
3.0
 40
4.0
 40
4.0
 40
4.0
 40
5.0
 40
5.0
 40
5.0
 40
5.0
 10
760.3184487031496
 20
281.0522677248758
 10
760.476234076374
 20
281.0522677248758
 10
760.5799314504801
 20
281.1659558758891
 10
760.5799314504801
 20
281.2989365616197
 10
760.5799314504801
 20
281.4322617568989
 10
760.476234076374
 20
281.5459499079121
 10
760.3184487031496
 20
281.5459499079121
 10
760.3184487031496
 20
281.5459499079121
 10
760.0221704914181
 20
281.5459499079121
 10
760.0221704914181
 20
281.5459499079121
 10
760.0221704914181
 20
281.5459499079121
 10
760.0221704914181
 20
281.0522677248758
 10
760.0221704914181
 20
281.0522677248758
 10
760.0221704914181
 20
281.0522677248758
 10
760.3184487031496
 20
281.0522677248758
 10
760.3184487031496
 20
281.0522677248758
 97
        0
 75
     2
 76
     1
 98
        0
  0
SPLINE
  5
36E
330
328
100
AcDbEntity
  8
Layer 1
370
     0
100
AcDbSpline
210
0.0
220
0.0
230
1.0
 70
    11
 71
     3
 72
    26
 73
    22
 74
     0
 42
0.0000000001
 43
0.0000000001
 12
1.0
 22
0.0
 32
0.0
 13
1.0
 23
0.0
 33
0.0
 40
0.0
 40
0.0
 40
0.0
 40
0.0
 40
1.0
 40
1.0
 40
1.0
 40
2.0
 40
2.0
 40
2.0
 40
3.0
 40
3.0
 40
3.0
 40
4.0
 40
4.0
 40
4.0
 40
5.0
 40
5.0
 40
5.0
 40
6.0
 40
6.0
 40
6.0
 40
7.0
 40
7.0
 40
7.0
 40
7.0
 10
767.5765758714739
 20
282.3958549641233
 30
0.0
 10
768.6266409753781
 20
282.3958549641233
 30
0.0
 10
769.3549341609599
 20
281.7946858019472
 30
0.0
 10
769.3549341609599
 20
280.7869953725116
 30
0.0
 10
769.3549341609599
 20
280.1517197650315
 30
0.0
 10
768.9739066002912
 20
279.6521809196703
 30
0.0
 10
768.4657550162169
 20
279.4661457634668
 30
0.0
 10
769.0414304718022
 20
279.2542723911239
 30
0.0
 10
769.4479517390616
 20
278.7547335457627
 30
0.0
 10
769.4479517390616
 20
278.035053098894
 30
0.0
 10
769.4479517390616
 20
276.9426133205213
 30
0.0
 10
768.7200030630283
 20
276.3669378649361
 30
0.0
 10
767.6530569912464
 20
276.3669378649361
 30
0.0
 10
767.6530569912464
 20
276.3669378649361
 30
0.0
 10
765.3076359848884
 20
276.3669378649361
 30
0.0
 10
765.3076359848884
 20
276.3669378649361
 30
0.0
 10
765.3076359848884
 20
276.3669378649361
 30
0.0
 10
765.3076359848884
 20
282.3958549641233
 30
0.0
 10
765.3076359848884
 20
282.3958549641233
 30
0.0
 10
765.3076359848884
 20
282.3958549641233
 30
0.0
 10
767.5765758714739
 20
282.3958549641233
 30
0.0
 10
767.5765758714739
 20
282.3958549641233
 30
0.0
  0
SPLINE
  5
36F
330
328
100
AcDbEntity
  8
Layer 1
370
     0
100
AcDbSpline
210
0.0
220
0.0
230
1.0
 70
    11
 71
     3
 72
    20
 73
    16
 74
     0
 42
0.0000000001
 43
0.0000000001
 12
1.0
 22
0.0
 32
0.0
 13
1.0
 23
0.0
 33
0.0
 40
0.0
 40
0.0
 40
0.0
 40
0.0
 40
1.0
 40
1.0
 40
1.0
 40
2.0
 40
2.0
 40
2.0
 40
3.0
 40
3.0
 40
3.0
 40
4.0
 40
4.0
 40
4.0
 40
5.0
 40
5.0
 40
5.0
 40
5.0
 10
765.9508353119845
 20
281.8198349989895
 30
0.0
 10
765.9508353119845
 20
281.8198349989895
 30
0.0
 10
765.9508353119845
 20
279.7286620394428
 30
0.0
 10
765.9508353119845
 20
279.7286620394428
 30
0.0
 10
765.9508353119845
 20
279.7286620394428
 30
0.0
 10
767.5259329678407
 20
279.7286620394428
 30
0.0
 10
767.5259329678407
 20
279.7286620394428
 30
0.0
 10
768.1949705110763
 20
279.7286620394428
 30
0.0
 10
768.7113903243153
 20
280.0587021869298
 30
0.0
 10
768.7113903243153
 20
280.7783826337985
 30
0.0
 10
768.7113903243153
 20
281.4980630806672
 30
0.0
 10
768.1949705110763
 20
281.8198349989895
 30
0.0
 10
767.5259329678407
 20
281.8198349989895
 30
0.0
 10
767.5259329678407
 20
281.8198349989895
 30
0.0
 10
765.9508353119845
 20
281.8198349989895
 30
0.0
 10
765.9508353119845
 20
281.8198349989895
 30
0.0
  0
SPLINE
  5
370
330
328
100
AcDbEntity
  8
Layer 1
370
     0
100
AcDbSpline
210
0.0
220
0.0
230
1.0
 70
    11
 71
     3
 72
    20
 73
    16
 74
     0
 42
0.0000000001
 43
0.0000000001
 12
1.0
 22
0.0
 32
0.0
 13
1.0
 23
0.0
 33
0.0
 40
0.0
 40
0.0
 40
0.0
 40
0.0
 40
1.0
 40
1.0
 40
1.0
 40
2.0
 40
2.0
 40
2.0
 40
3.0
 40
3.0
 40
3.0
 40
4.0
 40
4.0
 40
4.0
 40
5.0
 40
5.0
 40
5.0
 40
5.0
 10
765.9508353119845
 20
279.1526420743091
 30
0.0
 10
765.9508353119845
 20
279.1526420743091
 30
0.0
 10
765.9508353119845
 20
276.9426133205213
 30
0.0
 10
765.9508353119845
 20
276.9426133205213
 30
0.0
 10
765.9508353119845
 20
276.9426133205213
 30
0.0
 10
767.5938013489002
 20
276.9426133205213
 30
0.0
 10
767.5938013489002
 20
276.9426133205213
 30
0.0
 10
768.3389755023597
 20
276.9426133205213
 30
0.0
 10
768.804407902417
 20
277.3746282943716
 30
0.0
 10
768.804407902417
 20
278.0519340667718
 30
0.0
 10
768.804407902417
 20
278.7292398391719
 30
0.0
 10
768.3389755023597
 20
279.1526420743091
 30
0.0
 10
767.5938013489002
 20
279.1526420743091
 30
0.0
 10
767.5938013489002
 20
279.1526420743091
 30
0.0
 10
765.9508353119845
 20
279.1526420743091
 30
0.0
 10
765.9508353119845
 20
279.1526420743091
 30
0.0
  0
HATCH
  5
371
330
328
100
AcDbEntity
  8
Layer 1
 62
     7
100
AcDbHatch
 10
0.0
 20
0.0
 30
0.0
210
0.0
220
0.0
230
1.0
  2
SOLID
 70
     1
 71
     0
 91
        3
 92
        1
 93
        1
 72
     4
 94
        3
 73
     0
 74
     1
 95
       26
 96
       22
 40
0.0
 40
0.0
 40
0.0
 40
0.0
 40
1.0
 40
1.0
 40
1.0
 40
2.0
 40
2.0
 40
2.0
 40
3.0
 40
3.0
 40
3.0
 40
4.0
 40
4.0
 40
4.0
 40
5.0
 40
5.0
 40
5.0
 40
6.0
 40
6.0
 40
6.0
 40
7.0
 40
7.0
 40
7.0
 40
7.0
 10
767.5765758714739
 20
282.3958549641233
 10
768.6266409753781
 20
282.3958549641233
 10
769.3549341609599
 20
281.7946858019472
 10
769.3549341609599
 20
280.7869953725116
 10
769.3549341609599
 20
280.1517197650315
 10
768.9739066002912
 20
279.6521809196703
 10
768.4657550162169
 20
279.4661457634668
 10
769.0414304718022
 20
279.2542723911239
 10
769.4479517390616
 20
278.7547335457627
 10
769.4479517390616
 20
278.035053098894
 10
769.4479517390616
 20
276.9426133205213
 10
768.7200030630283
 20
276.3669378649361
 10
767.6530569912464
 20
276.3669378649361
 10
767.6530569912464
 20
276.3669378649361
 10
765.3076359848884
 20
276.3669378649361
 10
765.3076359848884
 20
276.3669378649361
 10
765.3076359848884
 20
276.3669378649361
 10
765.3076359848884
 20
282.3958549641233
 10
765.3076359848884
 20
282.3958549641233
 10
765.3076359848884
 20
282.3958549641233
 10
767.5765758714739
 20
282.3958549641233
 10
767.5765758714739
 20
282.3958549641233
 97
        0
 92
        1
 93
        1
 72
     4
 94
        3
 73
     0
 74
     1
 95
       20
 96
       16
 40
0.0
 40
0.0
 40
0.0
 40
0.0
 40
1.0
 40
1.0
 40
1.0
 40
2.0
 40
2.0
 40
2.0
 40
3.0
 40
3.0
 40
3.0
 40
4.0
 40
4.0
 40
4.0
 40
5.0
 40
5.0
 40
5.0
 40
5.0
 10
765.9508353119845
 20
281.8198349989895
 10
765.9508353119845
 20
281.8198349989895
 10
765.9508353119845
 20
279.7286620394428
 10
765.9508353119845
 20
279.7286620394428
 10
765.9508353119845
 20
279.7286620394428
 10
767.5259329678407
 20
279.7286620394428
 10
767.5259329678407
 20
279.7286620394428
 10
768.1949705110763
 20
279.7286620394428
 10
768.7113903243153
 20
280.0587021869298
 10
768.7113903243153
 20
280.7783826337985
 10
768.7113903243153
 20
281.4980630806672
 10
768.1949705110763
 20
281.8198349989895
 10
767.5259329678407
 20
281.8198349989895
 10
767.5259329678407
 20
281.8198349989895
 10
765.9508353119845
 20
281.8198349989895
 10
765.9508353119845
 20
281.8198349989895
 97
        0
 92
        1
 93
        1
 72
     4
 94
        3
 73
     0
 74
     1
 95
       20
 96
       16
 40
0.0
 40
0.0
 40
0.0
 40
0.0
 40
1.0
 40
1.0
 40
1.0
 40
2.0
 40
2.0
 40
2.0
 40
3.0
 40
3.0
 40
3.0
 40
4.0
 40
4.0
 40
4.0
 40
5.0
 40
5.0
 40
5.0
 40
5.0
 10
765.9508353119845
 20
279.1526420743091
 10
765.9508353119845
 20
279.1526420743091
 10
765.9508353119845
 20
276.9426133205213
 10
765.9508353119845
 20
276.9426133205213
 10
765.9508353119845
 20
276.9426133205213
 10
767.5938013489002
 20
276.9426133205213
 10
767.5938013489002
 20
276.9426133205213
 10
768.3389755023597
 20
276.9426133205213
 10
768.804407902417
 20
277.3746282943716
 10
768.804407902417
 20
278.0519340667718
 10
768.804407902417
 20
278.7292398391719
 10
768.3389755023597
 20
279.1526420743091
 10
767.5938013489002
 20
279.1526420743091
 10
767.5938013489002
 20
279.1526420743091
 10
765.9508353119845
 20
279.1526420743091
 10
765.9508353119845
 20
279.1526420743091
 97
        0
 75
     2
 76
     1
 98
        0
  0
SPLINE
  5
372
330
328
100
AcDbEntity
  8
Layer 1
370
     0
100
AcDbSpline
210
0.0
220
0.0
230
1.0
 70
    11
 71
     3
 72
    65
 73
    61
 74
     0
 42
0.0000000001
 43
0.0000000001
 12
1.0
 22
0.0
 32
0.0
 13
1.0
 23
0.0
 33
0.0
 40
0.0
 40
0.0
 40
0.0
 40
0.0
 40
1.0
 40
1.0
 40
1.0
 40
2.0
 40
2.0
 40
2.0
 40
3.0
 40
3.0
 40
3.0
 40
4.0
 40
4.0
 40
4.0
 40
5.0
 40
5.0
 40
5.0
 40
6.0
 40
6.0
 40
6.0
 40
7.0
 40
7.0
 40
7.0
 40
8.0
 40
8.0
 40
8.0
 40
9.0
 40
9.0
 40
9.0
 40
10.0
 40
10.0
 40
10.0
 40
11.0
 40
11.0
 40
11.0
 40
12.0
 40
12.0
 40
12.0
 40
13.0
 40
13.0
 40
13.0
 40
14.0
 40
14.0
 40
14.0
 40
15.0
 40
15.0
 40
15.0
 40
16.0
 40
16.0
 40
16.0
 40
17.0
 40
17.0
 40
17.0
 40
18.0
 40
18.0
 40
18.0
 40
19.0
 40
19.0
 40
19.0
 40
20.0
 40
20.0
 40
20.0
 40
20.0
 10
774.2910669722258
 20
281.786073063234
 30
0.0
 10
774.2910669722258
 20
281.786073063234
 30
0.0
 10
773.8759329662532
 20
281.37128356681
 30
0.0
 10
773.8759329662532
 20
281.37128356681
 30
0.0
 10
773.5117863734623
 20
281.7182046821746
 30
0.0
 10
773.0969968770382
 20
281.8963161187621
 30
0.0
 10
772.4703340082714
 20
281.8963161187621
 30
0.0
 10
771.6576359833009
 20
281.8963161187621
 30
0.0
 10
771.1918590736951
 20
281.447420177034
 30
0.0
 10
771.1918590736951
 20
280.7701144046339
 30
0.0
 10
771.1918590736951
 20
280.4734916833539
 30
0.0
 10
771.2766084226323
 20
280.2282008848041
 30
0.0
 10
771.4629880883842
 20
280.0673149256429
 30
0.0
 10
771.6490232445877
 20
279.9064289664817
 30
0.0
 10
771.9370332271546
 20
279.8047986496668
 30
0.0
 10
772.2501924067639
 20
279.7538112364851
 30
0.0
 10
772.2501924067639
 20
279.7538112364851
 30
0.0
 10
772.9529918857548
 20
279.6439126905057
 30
0.0
 10
772.9529918857548
 20
279.6439126905057
 30
0.0
 10
773.5117863734623
 20
279.5591633415685
 30
0.0
 10
773.7743026494384
 20
279.4575330247537
 30
0.0
 10
774.0454316641276
 20
279.2118977166554
 30
0.0
 10
774.3672035824499
 20
278.9325004728016
 30
0.0
 10
774.5535832482019
 20
278.5259792055421
 30
0.0
 10
774.5535832482019
 20
278.0264403601809
 30
0.0
 10
774.5535832482019
 20
276.9681070271121
 30
0.0
 10
773.7319279749698
 20
276.3162949613029
 30
0.0
 10
772.4703340082714
 20
276.3162949613029
 30
0.0
 10
771.5728866343637
 20
276.3162949613029
 30
0.0
 10
770.9717174721876
 20
276.5447047919749
 30
0.0
 10
770.4129229844801
 20
277.1121120183956
 30
0.0
 10
770.4129229844801
 20
277.1121120183956
 30
0.0
 10
770.8445934487819
 20
277.5437824826974
 30
0.0
 10
770.8445934487819
 20
277.5437824826974
 30
0.0
 10
771.3441322941432
 20
277.0442436373362
 30
0.0
 10
771.8099092037489
 20
276.8919704168881
 30
0.0
 10
772.4872149761491
 20
276.8919704168881
 30
0.0
 10
773.3763941208921
 20
276.8919704168881
 30
0.0
 10
773.9183076407219
 20
277.2984916841476
 30
0.0
 10
773.9183076407219
 20
278.0095593923032
 30
0.0
 10
773.9183076407219
 20
278.3313313106255
 30
0.0
 10
773.8252900626201
 20
278.5852348478884
 30
0.0
 10
773.6220294289903
 20
278.7633462844759
 30
0.0
 10
773.4356497632383
 20
278.9325004728016
 30
0.0
 10
773.2664955749126
 20
278.9917561151479
 30
0.0
 10
772.8344806010623
 20
279.0596244962073
 30
0.0
 10
772.8344806010623
 20
279.0596244962073
 30
0.0
 10
772.1316811220713
 20
279.1612548130222
 30
0.0
 10
772.1316811220713
 20
279.1612548130222
 30
0.0
 10
771.6576359833009
 20
279.2373914232462
 30
0.0
 10
771.3021021292232
 20
279.3813964145297
 30
0.0
 10
771.0309731145339
 20
279.6184189839149
 30
0.0
 10
770.7260821640893
 20
279.889547998604
 30
0.0
 10
770.5651962049282
 20
280.2619628205595
 30
0.0
 10
770.5651962049282
 20
280.7528889272076
 30
0.0
 10
770.5651962049282
 20
281.7774603245209
 30
0.0
 10
771.3021021292232
 20
282.4464978677564
 30
0.0
 10
772.4958277148622
 20
282.4464978677564
 30
0.0
 10
773.2664955749126
 20
282.4464978677564
 30
0.0
 10
773.7743026494384
 20
282.2432372341267
 30
0.0
 10
774.2910669722258
 20
281.786073063234
 30
0.0
  0
HATCH
  5
373
330
328
100
AcDbEntity
  8
Layer 1
 62
     7
100
AcDbHatch
 10
0.0
 20
0.0
 30
0.0
210
0.0
220
0.0
230
1.0
  2
SOLID
 70
     1
 71
     0
 91
        1
 92
        1
 93
        1
 72
     4
 94
        3
 73
     0
 74
     1
 95
       65
 96
       61
 40
0.0
 40
0.0
 40
0.0
 40
0.0
 40
1.0
 40
1.0
 40
1.0
 40
2.0
 40
2.0
 40
2.0
 40
3.0
 40
3.0
 40
3.0
 40
4.0
 40
4.0
 40
4.0
 40
5.0
 40
5.0
 40
5.0
 40
6.0
 40
6.0
 40
6.0
 40
7.0
 40
7.0
 40
7.0
 40
8.0
 40
8.0
 40
8.0
 40
9.0
 40
9.0
 40
9.0
 40
10.0
 40
10.0
 40
10.0
 40
11.0
 40
11.0
 40
11.0
 40
12.0
 40
12.0
 40
12.0
 40
13.0
 40
13.0
 40
13.0
 40
14.0
 40
14.0
 40
14.0
 40
15.0
 40
15.0
 40
15.0
 40
16.0
 40
16.0
 40
16.0
 40
17.0
 40
17.0
 40
17.0
 40
18.0
 40
18.0
 40
18.0
 40
19.0
 40
19.0
 40
19.0
 40
20.0
 40
20.0
 40
20.0
 40
20.0
 10
774.2910669722258
 20
281.786073063234
 10
774.2910669722258
 20
281.786073063234
 10
773.8759329662532
 20
281.37128356681
 10
773.8759329662532
 20
281.37128356681
 10
773.5117863734623
 20
281.7182046821746
 10
773.0969968770382
 20
281.8963161187621
 10
772.4703340082714
 20
281.8963161187621
 10
771.6576359833009
 20
281.8963161187621
 10
771.1918590736951
 20
281.447420177034
 10
771.1918590736951
 20
280.7701144046339
 10
771.1918590736951
 20
280.4734916833539
 10
771.2766084226323
 20
280.2282008848041
 10
771.4629880883842
 20
280.0673149256429
 10
771.6490232445877
 20
279.9064289664817
 10
771.9370332271546
 20
279.8047986496668
 10
772.2501924067639
 20
279.7538112364851
 10
772.2501924067639
 20
279.7538112364851
 10
772.9529918857548
 20
279.6439126905057
 10
772.9529918857548
 20
279.6439126905057
 10
773.5117863734623
 20
279.5591633415685
 10
773.7743026494384
 20
279.4575330247537
 10
774.0454316641276
 20
279.2118977166554
 10
774.3672035824499
 20
278.9325004728016
 10
774.5535832482019
 20
278.5259792055421
 10
774.5535832482019
 20
278.0264403601809
 10
774.5535832482019
 20
276.9681070271121
 10
773.7319279749698
 20
276.3162949613029
 10
772.4703340082714
 20
276.3162949613029
 10
771.5728866343637
 20
276.3162949613029
 10
770.9717174721876
 20
276.5447047919749
 10
770.4129229844801
 20
277.1121120183956
 10
770.4129229844801
 20
277.1121120183956
 10
770.8445934487819
 20
277.5437824826974
 10
770.8445934487819
 20
277.5437824826974
 10
771.3441322941432
 20
277.0442436373362
 10
771.8099092037489
 20
276.8919704168881
 10
772.4872149761491
 20
276.8919704168881
 10
773.3763941208921
 20
276.8919704168881
 10
773.9183076407219
 20
277.2984916841476
 10
773.9183076407219
 20
278.0095593923032
 10
773.9183076407219
 20
278.3313313106255
 10
773.8252900626201
 20
278.5852348478884
 10
773.6220294289903
 20
278.7633462844759
 10
773.4356497632383
 20
278.9325004728016
 10
773.2664955749126
 20
278.9917561151479
 10
772.8344806010623
 20
279.0596244962073
 10
772.8344806010623
 20
279.0596244962073
 10
772.1316811220713
 20
279.1612548130222
 10
772.1316811220713
 20
279.1612548130222
 10
771.6576359833009
 20
279.2373914232462
 10
771.3021021292232
 20
279.3813964145297
 10
771.0309731145339
 20
279.6184189839149
 10
770.7260821640893
 20
279.889547998604
 10
770.5651962049282
 20
280.2619628205595
 10
770.5651962049282
 20
280.7528889272076
 10
770.5651962049282
 20
281.7774603245209
 10
771.3021021292232
 20
282.4464978677564
 10
772.4958277148622
 20
282.4464978677564
 10
773.2664955749126
 20
282.4464978677564
 10
773.7743026494384
 20
282.2432372341267
 10
774.2910669722258
 20
281.786073063234
 97
        0
 75
     2
 76
     1
 98
        0
  0
POLYLINE
  5
374
330
328
100
AcDbEntity
  8
Layer 1
370
     0
100
AcDb2dPolyline
 66
     1
 10
0.0
 20
0.0
 30
0.0
  0
VERTEX
  5
375
330
374
100
AcDbEntity
  8
Layer 1
370
     0
100
AcDbVertex
100
AcDb2dVertex
 10
777.7706134123282
 20
277.3236408811899
 30
0.0
  0
VERTEX
  5
376
330
374
100
AcDbEntity
  8
Layer 1
370
     0
100
AcDbVertex
100
AcDb2dVertex
 10
775.3659367636238
 20
277.3236408811899
 30
0.0
  0
VERTEX
  5
377
330
374
100
AcDbEntity
  8
Layer 1
370
     0
100
AcDbVertex
100
AcDb2dVertex
 10
775.3659367636238
 20
277.8741671397328
 30
0.0
  0
VERTEX
  5
378
330
374
100
AcDbEntity
  8
Layer 1
370
     0
100
AcDbVertex
100
AcDb2dVertex
 10
777.5422035816562
 20
282.3958549641233
 30
0.0
  0
VERTEX
  5
379
330
374
100
AcDbEntity
  8
Layer 1
370
     0
100
AcDbVertex
100
AcDb2dVertex
 10
778.1940156474654
 20
282.3958549641233
 30
0.0
  0
VERTEX
  5
37A
330
374
100
AcDbEntity
  8
Layer 1
370
     0
100
AcDbVertex
100
AcDb2dVertex
 10
776.0180933389817
 20
277.8741671397328
 30
0.0
  0
VERTEX
  5
37B
330
374
100
AcDbEntity
  8
Layer 1
370
     0
100
AcDbVertex
100
AcDb2dVertex
 10
777.7706134123282
 20
277.8741671397328
 30
0.0
  0
VERTEX
  5
37C
330
374
100
AcDbEntity
  8
Layer 1
370
     0
100
AcDbVertex
100
AcDb2dVertex
 10
777.7706134123282
 20
279.5846570481594
 30
0.0
  0
VERTEX
  5
37D
330
374
100
AcDbEntity
  8
Layer 1
370
     0
100
AcDbVertex
100
AcDb2dVertex
 10
778.3717825745043
 20
279.5846570481594
 30
0.0
  0
VERTEX
  5
37E
330
374
100
AcDbEntity
  8
Layer 1
370
     0
100
AcDbVertex
100
AcDb2dVertex
 10
778.3717825745043
 20
277.8741671397328
 30
0.0
  0
VERTEX
  5
37F
330
374
100
AcDbEntity
  8
Layer 1
370
     0
100
AcDbVertex
100
AcDb2dVertex
 10
779.1086884987992
 20
277.8741671397328
 30
0.0
  0
VERTEX
  5
380
330
374
100
AcDbEntity
  8
Layer 1
370
     0
100
AcDbVertex
100
AcDb2dVertex
 10
779.1086884987992
 20
277.3236408811899
 30
0.0
  0
VERTEX
  5
381
330
374
100
AcDbEntity
  8
Layer 1
370
     0
100
AcDbVertex
100
AcDb2dVertex
 10
778.3717825745043
 20
277.3236408811899
 30
0.0
  0
VERTEX
  5
382
330
374
100
AcDbEntity
  8
Layer 1
370
     0
100
AcDbVertex
100
AcDb2dVertex
 10
778.3717825745043
 20
276.3669378649361
 30
0.0
  0
VERTEX
  5
383
330
374
100
AcDbEntity
  8
Layer 1
370
     0
100
AcDbVertex
100
AcDb2dVertex
 10
777.7706134123282
 20
276.3669378649361
 30
0.0
  0
VERTEX
  5
384
330
374
100
AcDbEntity
  8
Layer 1
370
     0
100
AcDbVertex
100
AcDb2dVertex
 10
777.7706134123282
 20
277.3236408811899
 30
0.0
  0
SEQEND
  5
385
330
374
100
AcDbEntity
  8
Layer 1
370
     0
  0
HATCH
  5
386
330
328
100
AcDbEntity
  8
Layer 1
 62
     7
100
AcDbHatch
 10
0.0
 20
0.0
 30
0.0
210
0.0
220
0.0
230
1.0
  2
SOLID
 70
     1
 71
     0
 91
        1
 92
        1
 93
       15
 72
     1
 10
777.7706134123282
 20
277.3236408811899
 11
775.3659367636238
 21
277.3236408811899
 72
     1
 10
775.3659367636238
 20
277.3236408811899
 11
775.3659367636238
 21
277.8741671397328
 72
     1
 10
775.3659367636238
 20
277.8741671397328
 11
777.5422035816562
 21
282.3958549641233
 72
     1
 10
777.5422035816562
 20
282.3958549641233
 11
778.1940156474654
 21
282.3958549641233
 72
     1
 10
778.1940156474654
 20
282.3958549641233
 11
776.0180933389817
 21
277.8741671397328
 72
     1
 10
776.0180933389817
 20
277.8741671397328
 11
777.7706134123282
 21
277.8741671397328
 72
     1
 10
777.7706134123282
 20
277.8741671397328
 11
777.7706134123282
 21
279.5846570481594
 72
     1
 10
777.7706134123282
 20
279.5846570481594
 11
778.3717825745043
 21
279.5846570481594
 72
     1
 10
778.3717825745043
 20
279.5846570481594
 11
778.3717825745043
 21
277.8741671397328
 72
     1
 10
778.3717825745043
 20
277.8741671397328
 11
779.1086884987992
 21
277.8741671397328
 72
     1
 10
779.1086884987992
 20
277.8741671397328
 11
779.1086884987992
 21
277.3236408811899
 72
     1
 10
779.1086884987992
 20
277.3236408811899
 11
778.3717825745043
 21
277.3236408811899
 72
     1
 10
778.3717825745043
 20
277.3236408811899
 11
778.3717825745043
 21
276.3669378649361
 72
     1
 10
778.3717825745043
 20
276.3669378649361
 11
777.7706134123282
 21
276.3669378649361
 72
     1
 10
777.7706134123282
 20
276.3669378649361
 11
777.7706134123282
 21
277.3236408811899
 97
        0
 75
     2
 76
     1
 98
        0
  0
SPLINE
  5
387
330
328
100
AcDbEntity
  8
Layer 1
370
     0
100
AcDbSpline
210
0.0
220
0.0
230
1.0
 70
    11
 71
     3
 72
    29
 73
    25
 74
     0
 42
0.0000000001
 43
0.0000000001
 12
1.0
 22
0.0
 32
0.0
 13
1.0
 23
0.0
 33
0.0
 40
0.0
 40
0.0
 40
0.0
 40
0.0
 40
1.0
 40
1.0
 40
1.0
 40
2.0
 40
2.0
 40
2.0
 40
3.0
 40
3.0
 40
3.0
 40
4.0
 40
4.0
 40
4.0
 40
5.0
 40
5.0
 40
5.0
 40
6.0
 40
6.0
 40
6.0
 40
7.0
 40
7.0
 40
7.0
 40
8.0
 40
8.0
 40
8.0
 40
8.0
 10
779.8783228302041
 20
278.0264403601809
 30
0.0
 10
779.8783228302041
 20
278.7292398391719
 30
0.0
 10
780.2765758682989
 20
279.2036294874908
 30
0.0
 10
780.7843829428248
 20
279.4912949605092
 30
0.0
 10
780.3103378040544
 20
279.7624239751983
 30
0.0
 10
779.9971786244452
 20
280.2027071782132
 30
0.0
 10
779.9971786244452
 20
280.8293700469802
 30
0.0
 10
779.9971786244452
 20
281.7691920953563
 30
0.0
 10
780.6999781034361
 20
282.4464978677564
 30
0.0
 10
781.65668111969
 20
282.4464978677564
 30
0.0
 10
782.6133841359439
 20
282.4464978677564
 30
0.0
 10
783.3161836149349
 20
281.7691920953563
 30
0.0
 10
783.3161836149349
 20
280.8293700469802
 30
0.0
 10
783.3161836149349
 20
280.2027071782132
 30
0.0
 10
783.0112926644903
 20
279.7624239751983
 30
0.0
 10
782.5372475257199
 20
279.4912949605092
 30
0.0
 10
783.0453991097943
 20
279.2036294874908
 30
0.0
 10
783.4346948996275
 20
278.7292398391719
 30
0.0
 10
783.4346948996275
 20
278.0264403601809
 30
0.0
 10
783.4346948996275
 20
277.0104817015807
 30
0.0
 10
782.6557588104125
 20
276.3162949613029
 30
0.0
 10
781.65668111969
 20
276.3162949613029
 30
0.0
 10
780.6576034289676
 20
276.3162949613029
 30
0.0
 10
779.8783228302041
 20
277.0104817015807
 30
0.0
 10
779.8783228302041
 20
278.0264403601809
 30
0.0
  0
SPLINE
  5
388
330
328
100
AcDbEntity
  8
Layer 1
370
     0
100
AcDbSpline
210
0.0
220
0.0
230
1.0
 70
    11
 71
     3
 72
    17
 73
    13
 74
     0
 42
0.0000000001
 43
0.0000000001
 12
1.0
 22
0.0
 32
0.0
 13
1.0
 23
0.0
 33
0.0
 40
0.0
 40
0.0
 40
0.0
 40
0.0
 40
1.0
 40
1.0
 40
1.0
 40
2.0
 40
2.0
 40
2.0
 40
3.0
 40
3.0
 40
3.0
 40
4.0
 40
4.0
 40
4.0
 40
4.0
 10
782.8252575082868
 20
278.035053098894
 30
0.0
 10
782.8252575082868
 20
278.7040906421295
 30
0.0
 10
782.3171059242125
 20
279.2118977166554
 30
0.0
 10
781.65668111969
 20
279.2118977166554
 30
0.0
 10
780.9962563151677
 20
279.2118977166554
 30
0.0
 10
780.4881047310932
 20
278.7040906421295
 30
0.0
 10
780.4881047310932
 20
278.035053098894
 30
0.0
 10
780.4881047310932
 20
277.3660155556585
 30
0.0
 10
780.9962563151677
 20
276.8582084811327
 30
0.0
 10
781.65668111969
 20
276.8582084811327
 30
0.0
 10
782.3171059242125
 20
276.8582084811327
 30
0.0
 10
782.8252575082868
 20
277.3660155556585
 30
0.0
 10
782.8252575082868
 20
278.035053098894
 30
0.0
  0
SPLINE
  5
389
330
328
100
AcDbEntity
  8
Layer 1
370
     0
100
AcDbSpline
210
0.0
220
0.0
230
1.0
 70
    11
 71
     3
 72
    17
 73
    13
 74
     0
 42
0.0000000001
 43
0.0000000001
 12
1.0
 22
0.0
 32
0.0
 13
1.0
 23
0.0
 33
0.0
 40
0.0
 40
0.0
 40
0.0
 40
0.0
 40
1.0
 40
1.0
 40
1.0
 40
2.0
 40
2.0
 40
2.0
 40
3.0
 40
3.0
 40
3.0
 40
4.0
 40
4.0
 40
4.0
 40
4.0
 10
782.7067462235942
 20
280.820757308267
 30
0.0
 10
782.7067462235942
 20
281.447420177034
 30
0.0
 10
782.2747312497438
 20
281.9045843479266
 30
0.0
 10
781.65668111969
 20
281.9045843479266
 30
0.0
 10
781.0386309896362
 20
281.9045843479266
 30
0.0
 10
780.6066160157859
 20
281.447420177034
 30
0.0
 10
780.6066160157859
 20
280.820757308267
 30
0.0
 10
780.6066160157859
 20
280.1858262103355
 30
0.0
 10
781.0386309896362
 20
279.7455430073206
 30
0.0
 10
781.65668111969
 20
279.7455430073206
 30
0.0
 10
782.2747312497438
 20
279.7455430073206
 30
0.0
 10
782.7067462235942
 20
280.1858262103355
 30
0.0
 10
782.7067462235942
 20
280.820757308267
 30
0.0
  0
HATCH
  5
38A
330
328
100
AcDbEntity
  8
Layer 1
 62
     7
100
AcDbHatch
 10
0.0
 20
0.0
 30
0.0
210
0.0
220
0.0
230
1.0
  2
SOLID
 70
     1
 71
     0
 91
        3
 92
        1
 93
        1
 72
     4
 94
        3
 73
     0
 74
     1
 95
       29
 96
       25
 40
0.0
 40
0.0
 40
0.0
 40
0.0
 40
1.0
 40
1.0
 40
1.0
 40
2.0
 40
2.0
 40
2.0
 40
3.0
 40
3.0
 40
3.0
 40
4.0
 40
4.0
 40
4.0
 40
5.0
 40
5.0
 40
5.0
 40
6.0
 40
6.0
 40
6.0
 40
7.0
 40
7.0
 40
7.0
 40
8.0
 40
8.0
 40
8.0
 40
8.0
 10
779.8783228302041
 20
278.0264403601809
 10
779.8783228302041
 20
278.7292398391719
 10
780.2765758682989
 20
279.2036294874908
 10
780.7843829428248
 20
279.4912949605092
 10
780.3103378040544
 20
279.7624239751983
 10
779.9971786244452
 20
280.2027071782132
 10
779.9971786244452
 20
280.8293700469802
 10
779.9971786244452
 20
281.7691920953563
 10
780.6999781034361
 20
282.4464978677564
 10
781.65668111969
 20
282.4464978677564
 10
782.6133841359439
 20
282.4464978677564
 10
783.3161836149349
 20
281.7691920953563
 10
783.3161836149349
 20
280.8293700469802
 10
783.3161836149349
 20
280.2027071782132
 10
783.0112926644903
 20
279.7624239751983
 10
782.5372475257199
 20
279.4912949605092
 10
783.0453991097943
 20
279.2036294874908
 10
783.4346948996275
 20
278.7292398391719
 10
783.4346948996275
 20
278.0264403601809
 10
783.4346948996275
 20
277.0104817015807
 10
782.6557588104125
 20
276.3162949613029
 10
781.65668111969
 20
276.3162949613029
 10
780.6576034289676
 20
276.3162949613029
 10
779.8783228302041
 20
277.0104817015807
 10
779.8783228302041
 20
278.0264403601809
 97
        0
 92
        1
 93
        1
 72
     4
 94
        3
 73
     0
 74
     1
 95
       17
 96
       13
 40
0.0
 40
0.0
 40
0.0
 40
0.0
 40
1.0
 40
1.0
 40
1.0
 40
2.0
 40
2.0
 40
2.0
 40
3.0
 40
3.0
 40
3.0
 40
4.0
 40
4.0
 40
4.0
 40
4.0
 10
782.8252575082868
 20
278.035053098894
 10
782.8252575082868
 20
278.7040906421295
 10
782.3171059242125
 20
279.2118977166554
 10
781.65668111969
 20
279.2118977166554
 10
780.9962563151677
 20
279.2118977166554
 10
780.4881047310932
 20
278.7040906421295
 10
780.4881047310932
 20
278.035053098894
 10
780.4881047310932
 20
277.3660155556585
 10
780.9962563151677
 20
276.8582084811327
 10
781.65668111969
 20
276.8582084811327
 10
782.3171059242125
 20
276.8582084811327
 10
782.8252575082868
 20
277.3660155556585
 10
782.8252575082868
 20
278.035053098894
 97
        0
 92
        1
 93
        1
 72
     4
 94
        3
 73
     0
 74
     1
 95
       17
 96
       13
 40
0.0
 40
0.0
 40
0.0
 40
0.0
 40
1.0
 40
1.0
 40
1.0
 40
2.0
 40
2.0
 40
2.0
 40
3.0
 40
3.0
 40
3.0
 40
4.0
 40
4.0
 40
4.0
 40
4.0
 10
782.7067462235942
 20
280.820757308267
 10
782.7067462235942
 20
281.447420177034
 10
782.2747312497438
 20
281.9045843479266
 10
781.65668111969
 20
281.9045843479266
 10
781.0386309896362
 20
281.9045843479266
 10
780.6066160157859
 20
281.447420177034
 10
780.6066160157859
 20
280.820757308267
 10
780.6066160157859
 20
280.1858262103355
 10
781.0386309896362
 20
279.7455430073206
 10
781.65668111969
 20
279.7455430073206
 10
782.2747312497438
 20
279.7455430073206
 10
782.7067462235942
 20
280.1858262103355
 10
782.7067462235942
 20
280.820757308267
 97
        0
 75
     2
 76
     1
 98
        0
  0
SPLINE
  5
38B
330
328
100
AcDbEntity
  8
Layer 1
370
     0
100
AcDbSpline
210
0.0
220
0.0
230
1.0
 70
    11
 71
     3
 72
    65
 73
    61
 74
     0
 42
0.0000000001
 43
0.0000000001
 12
1.0
 22
0.0
 32
0.0
 13
1.0
 23
0.0
 33
0.0
 40
0.0
 40
0.0
 40
0.0
 40
0.0
 40
1.0
 40
1.0
 40
1.0
 40
2.0
 40
2.0
 40
2.0
 40
3.0
 40
3.0
 40
3.0
 40
4.0
 40
4.0
 40
4.0
 40
5.0
 40
5.0
 40
5.0
 40
6.0
 40
6.0
 40
6.0
 40
7.0
 40
7.0
 40
7.0
 40
8.0
 40
8.0
 40
8.0
 40
9.0
 40
9.0
 40
9.0
 40
10.0
 40
10.0
 40
10.0
 40
11.0
 40
11.0
 40
11.0
 40
12.0
 40
12.0
 40
12.0
 40
13.0
 40
13.0
 40
13.0
 40
14.0
 40
14.0
 40
14.0
 40
15.0
 40
15.0
 40
15.0
 40
16.0
 40
16.0
 40
16.0
 40
17.0
 40
17.0
 40
17.0
 40
18.0
 40
18.0
 40
18.0
 40
19.0
 40
19.0
 40
19.0
 40
20.0
 40
20.0
 40
20.0
 40
20.0
 10
790.2167098718903
 20
281.786073063234
 30
0.0
 10
790.2167098718903
 20
281.786073063234
 30
0.0
 10
789.8015758659177
 20
281.37128356681
 30
0.0
 10
789.8015758659177
 20
281.37128356681
 30
0.0
 10
789.4374292731268
 20
281.7182046821746
 30
0.0
 10
789.0226397767027
 20
281.8963161187621
 30
0.0
 10
788.3959769079357
 20
281.8963161187621
 30
0.0
 10
787.5832788829654
 20
281.8963161187621
 30
0.0
 10
787.1175019733596
 20
281.447420177034
 30
0.0
 10
787.1175019733596
 20
280.7701144046339
 30
0.0
 10
787.1175019733596
 20
280.4734916833539
 30
0.0
 10
787.2022513222967
 20
280.2282008848041
 30
0.0
 10
787.3886309880487
 20
280.0673149256429
 30
0.0
 10
787.5746661442522
 20
279.9064289664817
 30
0.0
 10
787.8626761268191
 20
279.8047986496668
 30
0.0
 10
788.1758353064283
 20
279.7538112364851
 30
0.0
 10
788.1758353064283
 20
279.7538112364851
 30
0.0
 10
788.8786347854193
 20
279.6439126905057
 30
0.0
 10
788.8786347854193
 20
279.6439126905057
 30
0.0
 10
789.4374292731268
 20
279.5591633415685
 30
0.0
 10
789.6999455491028
 20
279.4575330247537
 30
0.0
 10
789.971074563792
 20
279.2118977166554
 30
0.0
 10
790.2928464821143
 20
278.9325004728016
 30
0.0
 10
790.4792261478664
 20
278.5259792055421
 30
0.0
 10
790.4792261478664
 20
278.0264403601809
 30
0.0
 10
790.4792261478664
 20
276.9681070271121
 30
0.0
 10
789.6575708746343
 20
276.3162949613029
 30
0.0
 10
788.3959769079357
 20
276.3162949613029
 30
0.0
 10
787.4985295340282
 20
276.3162949613029
 30
0.0
 10
786.8973603718521
 20
276.5447047919749
 30
0.0
 10
786.3385658841446
 20
277.1121120183956
 30
0.0
 10
786.3385658841446
 20
277.1121120183956
 30
0.0
 10
786.7702363484464
 20
277.5437824826974
 30
0.0
 10
786.7702363484464
 20
277.5437824826974
 30
0.0
 10
787.2697751938076
 20
277.0442436373362
 30
0.0
 10
787.7355521034134
 20
276.8919704168881
 30
0.0
 10
788.4132023853621
 20
276.8919704168881
 30
0.0
 10
789.3020370205564
 20
276.8919704168881
 30
0.0
 10
789.8439505403862
 20
277.2984916841476
 30
0.0
 10
789.8439505403862
 20
278.0095593923032
 30
0.0
 10
789.8439505403862
 20
278.3313313106255
 30
0.0
 10
789.7509329622845
 20
278.5852348478884
 30
0.0
 10
789.5476723286548
 20
278.7633462844759
 30
0.0
 10
789.3612926629028
 20
278.9325004728016
 30
0.0
 10
789.192138474577
 20
278.9917561151479
 30
0.0
 10
788.7601235007266
 20
279.0596244962073
 30
0.0
 10
788.7601235007266
 20
279.0596244962073
 30
0.0
 10
788.0573240217357
 20
279.1612548130222
 30
0.0
 10
788.0573240217357
 20
279.1612548130222
 30
0.0
 10
787.5832788829654
 20
279.2373914232462
 30
0.0
 10
787.2277450288875
 20
279.3813964145297
 30
0.0
 10
786.9566160141984
 20
279.6184189839149
 30
0.0
 10
786.6517250637538
 20
279.889547998604
 30
0.0
 10
786.4908391045926
 20
280.2619628205595
 30
0.0
 10
786.4908391045926
 20
280.7528889272076
 30
0.0
 10
786.4908391045926
 20
281.7774603245209
 30
0.0
 10
787.2277450288875
 20
282.4464978677564
 30
0.0
 10
788.4214706145266
 20
282.4464978677564
 30
0.0
 10
789.192138474577
 20
282.4464978677564
 30
0.0
 10
789.6999455491028
 20
282.2432372341267
 30
0.0
 10
790.2167098718903
 20
281.786073063234
 30
0.0
  0
HATCH
  5
38C
330
328
100
AcDbEntity
  8
Layer 1
 62
     7
100
AcDbHatch
 10
0.0
 20
0.0
 30
0.0
210
0.0
220
0.0
230
1.0
  2
SOLID
 70
     1
 71
     0
 91
        1
 92
        1
 93
        1
 72
     4
 94
        3
 73
     0
 74
     1
 95
       65
 96
       61
 40
0.0
 40
0.0
 40
0.0
 40
0.0
 40
1.0
 40
1.0
 40
1.0
 40
2.0
 40
2.0
 40
2.0
 40
3.0
 40
3.0
 40
3.0
 40
4.0
 40
4.0
 40
4.0
 40
5.0
 40
5.0
 40
5.0
 40
6.0
 40
6.0
 40
6.0
 40
7.0
 40
7.0
 40
7.0
 40
8.0
 40
8.0
 40
8.0
 40
9.0
 40
9.0
 40
9.0
 40
10.0
 40
10.0
 40
10.0
 40
11.0
 40
11.0
 40
11.0
 40
12.0
 40
12.0
 40
12.0
 40
13.0
 40
13.0
 40
13.0
 40
14.0
 40
14.0
 40
14.0
 40
15.0
 40
15.0
 40
15.0
 40
16.0
 40
16.0
 40
16.0
 40
17.0
 40
17.0
 40
17.0
 40
18.0
 40
18.0
 40
18.0
 40
19.0
 40
19.0
 40
19.0
 40
20.0
 40
20.0
 40
20.0
 40
20.0
 10
790.2167098718903
 20
281.786073063234
 10
790.2167098718903
 20
281.786073063234
 10
789.8015758659177
 20
281.37128356681
 10
789.8015758659177
 20
281.37128356681
 10
789.4374292731268
 20
281.7182046821746
 10
789.0226397767027
 20
281.8963161187621
 10
788.3959769079357
 20
281.8963161187621
 10
787.5832788829654
 20
281.8963161187621
 10
787.1175019733596
 20
281.447420177034
 10
787.1175019733596
 20
280.7701144046339
 10
787.1175019733596
 20
280.4734916833539
 10
787.2022513222967
 20
280.2282008848041
 10
787.3886309880487
 20
280.0673149256429
 10
787.5746661442522
 20
279.9064289664817
 10
787.8626761268191
 20
279.8047986496668
 10
788.1758353064283
 20
279.7538112364851
 10
788.1758353064283
 20
279.7538112364851
 10
788.8786347854193
 20
279.6439126905057
 10
788.8786347854193
 20
279.6439126905057
 10
789.4374292731268
 20
279.5591633415685
 10
789.6999455491028
 20
279.4575330247537
 10
789.971074563792
 20
279.2118977166554
 10
790.2928464821143
 20
278.9325004728016
 10
790.4792261478664
 20
278.5259792055421
 10
790.4792261478664
 20
278.0264403601809
 10
790.4792261478664
 20
276.9681070271121
 10
789.6575708746343
 20
276.3162949613029
 10
788.3959769079357
 20
276.3162949613029
 10
787.4985295340282
 20
276.3162949613029
 10
786.8973603718521
 20
276.5447047919749
 10
786.3385658841446
 20
277.1121120183956
 10
786.3385658841446
 20
277.1121120183956
 10
786.7702363484464
 20
277.5437824826974
 10
786.7702363484464
 20
277.5437824826974
 10
787.2697751938076
 20
277.0442436373362
 10
787.7355521034134
 20
276.8919704168881
 10
788.4132023853621
 20
276.8919704168881
 10
789.3020370205564
 20
276.8919704168881
 10
789.8439505403862
 20
277.2984916841476
 10
789.8439505403862
 20
278.0095593923032
 10
789.8439505403862
 20
278.3313313106255
 10
789.7509329622845
 20
278.5852348478884
 10
789.5476723286548
 20
278.7633462844759
 10
789.3612926629028
 20
278.9325004728016
 10
789.192138474577
 20
278.9917561151479
 10
788.7601235007266
 20
279.0596244962073
 10
788.7601235007266
 20
279.0596244962073
 10
788.0573240217357
 20
279.1612548130222
 10
788.0573240217357
 20
279.1612548130222
 10
787.5832788829654
 20
279.2373914232462
 10
787.2277450288875
 20
279.3813964145297
 10
786.9566160141984
 20
279.6184189839149
 10
786.6517250637538
 20
279.889547998604
 10
786.4908391045926
 20
280.2619628205595
 10
786.4908391045926
 20
280.7528889272076
 10
786.4908391045926
 20
281.7774603245209
 10
787.2277450288875
 20
282.4464978677564
 10
788.4214706145266
 20
282.4464978677564
 10
789.192138474577
 20
282.4464978677564
 10
789.6999455491028
 20
282.2432372341267
 10
790.2167098718903
 20
281.786073063234
 97
        0
 75
     2
 76
     1
 98
        0
  0
SPLINE
  5
38D
330
328
100
AcDbEntity
  8
Layer 1
370
     0
100
AcDbSpline
210
0.0
220
0.0
230
1.0
 70
    11
 71
     3
 72
    53
 73
    49
 74
     0
 42
0.0000000001
 43
0.0000000001
 12
1.0
 22
0.0
 32
0.0
 13
1.0
 23
0.0
 33
0.0
 40
0.0
 40
0.0
 40
0.0
 40
0.0
 40
1.0
 40
1.0
 40
1.0
 40
2.0
 40
2.0
 40
2.0
 40
3.0
 40
3.0
 40
3.0
 40
4.0
 40
4.0
 40
4.0
 40
5.0
 40
5.0
 40
5.0
 40
6.0
 40
6.0
 40
6.0
 40
7.0
 40
7.0
 40
7.0
 40
8.0
 40
8.0
 40
8.0
 40
9.0
 40
9.0
 40
9.0
 40
10.0
 40
10.0
 40
10.0
 40
11.0
 40
11.0
 40
11.0
 40
12.0
 40
12.0
 40
12.0
 40
13.0
 40
13.0
 40
13.0
 40
14.0
 40
14.0
 40
14.0
 40
15.0
 40
15.0
 40
15.0
 40
16.0
 40
16.0
 40
16.0
 40
16.0
 10
792.4263941161296
 20
280.5327473257001
 30
0.0
 10
792.4263941161296
 20
280.5327473257001
 30
0.0
 10
793.315228751324
 20
280.5327473257001
 30
0.0
 10
793.315228751324
 20
280.5327473257001
 30
0.0
 10
793.315228751324
 20
280.5327473257001
 30
0.0
 10
793.315228751324
 20
280.0673149256429
 30
0.0
 10
793.315228751324
 20
280.0673149256429
 30
0.0
 10
793.315228751324
 20
280.0673149256429
 30
0.0
 10
792.4263941161296
 20
280.0673149256429
 30
0.0
 10
792.4263941161296
 20
280.0673149256429
 30
0.0
 10
792.4263941161296
 20
280.0673149256429
 30
0.0
 10
792.4263941161296
 20
277.5014078082288
 30
0.0
 10
792.4263941161296
 20
277.5014078082288
 30
0.0
 10
792.4263941161296
 20
277.1121120183956
 30
0.0
 10
792.6041610431685
 20
276.8919704168881
 30
0.0
 10
792.9934568330017
 20
276.8919704168881
 30
0.0
 10
792.9934568330017
 20
276.8919704168881
 30
0.0
 10
793.315228751324
 20
276.8919704168881
 30
0.0
 10
793.315228751324
 20
276.8919704168881
 30
0.0
 10
793.315228751324
 20
276.8919704168881
 30
0.0
 10
793.315228751324
 20
276.3669378649361
 30
0.0
 10
793.315228751324
 20
276.3669378649361
 30
0.0
 10
793.315228751324
 20
276.3669378649361
 30
0.0
 10
792.8835582870222
 20
276.3669378649361
 30
0.0
 10
792.8835582870222
 20
276.3669378649361
 30
0.0
 10
792.1721460693182
 20
276.3669378649361
 30
0.0
 10
791.8166122152403
 20
276.8664767102973
 30
0.0
 10
791.8166122152403
 20
277.4845268403511
 30
0.0
 10
791.8166122152403
 20
277.4845268403511
 30
0.0
 10
791.8166122152403
 20
280.0673149256429
 30
0.0
 10
791.8166122152403
 20
280.0673149256429
 30
0.0
 10
791.8166122152403
 20
280.0673149256429
 30
0.0
 10
791.2915796632883
 20
280.0673149256429
 30
0.0
 10
791.2915796632883
 20
280.0673149256429
 30
0.0
 10
791.2915796632883
 20
280.0673149256429
 30
0.0
 10
791.2915796632883
 20
280.5327473257001
 30
0.0
 10
791.2915796632883
 20
280.5327473257001
 30
0.0
 10
791.2915796632883
 20
280.5327473257001
 30
0.0
 10
791.8166122152403
 20
280.5327473257001
 30
0.0
 10
791.8166122152403
 20
280.5327473257001
 30
0.0
 10
791.8166122152403
 20
280.5327473257001
 30
0.0
 10
791.8166122152403
 20
281.8115667698249
 30
0.0
 10
791.8166122152403
 20
281.8115667698249
 30
0.0
 10
791.8166122152403
 20
281.8115667698249
 30
0.0
 10
792.4263941161296
 20
281.8115667698249
 30
0.0
 10
792.4263941161296
 20
281.8115667698249
 30
0.0
 10
792.4263941161296
 20
281.8115667698249
 30
0.0
 10
792.4263941161296
 20
280.5327473257001
 30
0.0
 10
792.4263941161296
 20
280.5327473257001
 30
0.0
  0
HATCH
  5
38E
330
328
100
AcDbEntity
  8
Layer 1
 62
     7
100
AcDbHatch
 10
0.0
 20
0.0
 30
0.0
210
0.0
220
0.0
230
1.0
  2
SOLID
 70
     1
 71
     0
 91
        1
 92
        1
 93
        1
 72
     4
 94
        3
 73
     0
 74
     1
 95
       53
 96
       49
 40
0.0
 40
0.0
 40
0.0
 40
0.0
 40
1.0
 40
1.0
 40
1.0
 40
2.0
 40
2.0
 40
2.0
 40
3.0
 40
3.0
 40
3.0
 40
4.0
 40
4.0
 40
4.0
 40
5.0
 40
5.0
 40
5.0
 40
6.0
 40
6.0
 40
6.0
 40
7.0
 40
7.0
 40
7.0
 40
8.0
 40
8.0
 40
8.0
 40
9.0
 40
9.0
 40
9.0
 40
10.0
 40
10.0
 40
10.0
 40
11.0
 40
11.0
 40
11.0
 40
12.0
 40
12.0
 40
12.0
 40
13.0
 40
13.0
 40
13.0
 40
14.0
 40
14.0
 40
14.0
 40
15.0
 40
15.0
 40
15.0
 40
16.0
 40
16.0
 40
16.0
 40
16.0
 10
792.4263941161296
 20
280.5327473257001
 10
792.4263941161296
 20
280.5327473257001
 10
793.315228751324
 20
280.5327473257001
 10
793.315228751324
 20
280.5327473257001
 10
793.315228751324
 20
280.5327473257001
 10
793.315228751324
 20
280.0673149256429
 10
793.315228751324
 20
280.0673149256429
 10
793.315228751324
 20
280.0673149256429
 10
792.4263941161296
 20
280.0673149256429
 10
792.4263941161296
 20
280.0673149256429
 10
792.4263941161296
 20
280.0673149256429
 10
792.4263941161296
 20
277.5014078082288
 10
792.4263941161296
 20
277.5014078082288
 10
792.4263941161296
 20
277.1121120183956
 10
792.6041610431685
 20
276.8919704168881
 10
792.9934568330017
 20
276.8919704168881
 10
792.9934568330017
 20
276.8919704168881
 10
793.315228751324
 20
276.8919704168881
 10
793.315228751324
 20
276.8919704168881
 10
793.315228751324
 20
276.8919704168881
 10
793.315228751324
 20
276.3669378649361
 10
793.315228751324
 20
276.3669378649361
 10
793.315228751324
 20
276.3669378649361
 10
792.8835582870222
 20
276.3669378649361
 10
792.8835582870222
 20
276.3669378649361
 10
792.1721460693182
 20
276.3669378649361
 10
791.8166122152403
 20
276.8664767102973
 10
791.8166122152403
 20
277.4845268403511
 10
791.8166122152403
 20
277.4845268403511
 10
791.8166122152403
 20
280.0673149256429
 10
791.8166122152403
 20
280.0673149256429
 10
791.8166122152403
 20
280.0673149256429
 10
791.2915796632883
 20
280.0673149256429
 10
791.2915796632883
 20
280.0673149256429
 10
791.2915796632883
 20
280.0673149256429
 10
791.2915796632883
 20
280.5327473257001
 10
791.2915796632883
 20
280.5327473257001
 10
791.2915796632883
 20
280.5327473257001
 10
791.8166122152403
 20
280.5327473257001
 10
791.8166122152403
 20
280.5327473257001
 10
791.8166122152403
 20
280.5327473257001
 10
791.8166122152403
 20
281.8115667698249
 10
791.8166122152403
 20
281.8115667698249
 10
791.8166122152403
 20
281.8115667698249
 10
792.4263941161296
 20
281.8115667698249
 10
792.4263941161296
 20
281.8115667698249
 10
792.4263941161296
 20
281.8115667698249
 10
792.4263941161296
 20
280.5327473257001
 10
792.4263941161296
 20
280.5327473257001
 97
        0
 75
     2
 76
     1
 98
        0
  0
SPLINE
  5
38F
330
328
100
AcDbEntity
  8
Layer 1
370
     0
100
AcDbSpline
210
0.0
220
0.0
230
1.0
 70
    11
 71
     3
 72
    35
 73
    31
 74
     0
 42
0.0000000001
 43
0.0000000001
 12
1.0
 22
0.0
 32
0.0
 13
1.0
 23
0.0
 33
0.0
 40
0.0
 40
0.0
 40
0.0
 40
0.0
 40
1.0
 40
1.0
 40
1.0
 40
2.0
 40
2.0
 40
2.0
 40
3.0
 40
3.0
 40
3.0
 40
4.0
 40
4.0
 40
4.0
 40
5.0
 40
5.0
 40
5.0
 40
6.0
 40
6.0
 40
6.0
 40
7.0
 40
7.0
 40
7.0
 40
8.0
 40
8.0
 40
8.0
 40
9.0
 40
9.0
 40
9.0
 40
10.0
 40
10.0
 40
10.0
 40
10.0
 10
797.3029267755007
 20
280.1940944395001
 30
0.0
 10
797.3029267755007
 20
280.1940944395001
 30
0.0
 10
796.8540308337726
 20
279.7369302686075
 30
0.0
 10
796.8540308337726
 20
279.7369302686075
 30
0.0
 10
796.6252764935521
 20
279.965684608828
 30
0.0
 10
796.4561223052262
 20
280.0418212190521
 30
0.0
 10
796.134350386904
 20
280.0418212190521
 30
0.0
 10
795.5245684860147
 20
280.0418212190521
 30
0.0
 10
795.1352726961815
 20
279.5591633415685
 30
0.0
 10
795.1352726961815
 20
278.924232243637
 30
0.0
 10
795.1352726961815
 20
278.924232243637
 30
0.0
 10
795.1352726961815
 20
276.3669378649361
 30
0.0
 10
795.1352726961815
 20
276.3669378649361
 30
0.0
 10
795.1352726961815
 20
276.3669378649361
 30
0.0
 10
794.5254907952923
 20
276.3669378649361
 30
0.0
 10
794.5254907952923
 20
276.3669378649361
 30
0.0
 10
794.5254907952923
 20
276.3669378649361
 30
0.0
 10
794.5254907952923
 20
280.5327473257001
 30
0.0
 10
794.5254907952923
 20
280.5327473257001
 30
0.0
 10
794.5254907952923
 20
280.5327473257001
 30
0.0
 10
795.1352726961815
 20
280.5327473257001
 30
0.0
 10
795.1352726961815
 20
280.5327473257001
 30
0.0
 10
795.1352726961815
 20
280.5327473257001
 30
0.0
 10
795.1352726961815
 20
280.0249402511743
 30
0.0
 10
795.1352726961815
 20
280.0249402511743
 30
0.0
 10
795.3636825268536
 20
280.371861366539
 30
0.0
 10
795.8208466977462
 20
280.5837347388818
 30
0.0
 10
796.3035045752297
 20
280.5837347388818
 30
0.0
 10
796.7017576133246
 20
280.5837347388818
 30
0.0
 10
797.0063040542207
 20
280.4907171607801
 30
0.0
 10
797.3029267755007
 20
280.1940944395001
 30
0.0
  0
HATCH
  5
390
330
328
100
AcDbEntity
  8
Layer 1
 62
     7
100
AcDbHatch
 10
0.0
 20
0.0
 30
0.0
210
0.0
220
0.0
230
1.0
  2
SOLID
 70
     1
 71
     0
 91
        1
 92
        1
 93
        1
 72
     4
 94
        3
 73
     0
 74
     1
 95
       35
 96
       31
 40
0.0
 40
0.0
 40
0.0
 40
0.0
 40
1.0
 40
1.0
 40
1.0
 40
2.0
 40
2.0
 40
2.0
 40
3.0
 40
3.0
 40
3.0
 40
4.0
 40
4.0
 40
4.0
 40
5.0
 40
5.0
 40
5.0
 40
6.0
 40
6.0
 40
6.0
 40
7.0
 40
7.0
 40
7.0
 40
8.0
 40
8.0
 40
8.0
 40
9.0
 40
9.0
 40
9.0
 40
10.0
 40
10.0
 40
10.0
 40
10.0
 10
797.3029267755007
 20
280.1940944395001
 10
797.3029267755007
 20
280.1940944395001
 10
796.8540308337726
 20
279.7369302686075
 10
796.8540308337726
 20
279.7369302686075
 10
796.6252764935521
 20
279.965684608828
 10
796.4561223052262
 20
280.0418212190521
 10
796.134350386904
 20
280.0418212190521
 10
795.5245684860147
 20
280.0418212190521
 10
795.1352726961815
 20
279.5591633415685
 10
795.1352726961815
 20
278.924232243637
 10
795.1352726961815
 20
278.924232243637
 10
795.1352726961815
 20
276.3669378649361
 10
795.1352726961815
 20
276.3669378649361
 10
795.1352726961815
 20
276.3669378649361
 10
794.5254907952923
 20
276.3669378649361
 10
794.5254907952923
 20
276.3669378649361
 10
794.5254907952923
 20
276.3669378649361
 10
794.5254907952923
 20
280.5327473257001
 10
794.5254907952923
 20
280.5327473257001
 10
794.5254907952923
 20
280.5327473257001
 10
795.1352726961815
 20
280.5327473257001
 10
795.1352726961815
 20
280.5327473257001
 10
795.1352726961815
 20
280.5327473257001
 10
795.1352726961815
 20
280.0249402511743
 10
795.1352726961815
 20
280.0249402511743
 10
795.3636825268536
 20
280.371861366539
 10
795.8208466977462
 20
280.5837347388818
 10
796.3035045752297
 20
280.5837347388818
 10
796.7017576133246
 20
280.5837347388818
 10
797.0063040542207
 20
280.4907171607801
 10
797.3029267755007
 20
280.1940944395001
 97
        0
 75
     2
 76
     1
 98
        0
  0
SPLINE
  5
391
330
328
100
AcDbEntity
  8
Layer 1
370
     0
100
AcDbSpline
210
0.0
220
0.0
230
1.0
 70
    11
 71
     3
 72
    47
 73
    43
 74
     0
 42
0.0000000001
 43
0.0000000001
 12
1.0
 22
0.0
 32
0.0
 13
1.0
 23
0.0
 33
0.0
 40
0.0
 40
0.0
 40
0.0
 40
0.0
 40
1.0
 40
1.0
 40
1.0
 40
2.0
 40
2.0
 40
2.0
 40
3.0
 40
3.0
 40
3.0
 40
4.0
 40
4.0
 40
4.0
 40
5.0
 40
5.0
 40
5.0
 40
6.0
 40
6.0
 40
6.0
 40
7.0
 40
7.0
 40
7.0
 40
8.0
 40
8.0
 40
8.0
 40
9.0
 40
9.0
 40
9.0
 40
10.0
 40
10.0
 40
10.0
 40
11.0
 40
11.0
 40
11.0
 40
12.0
 40
12.0
 40
12.0
 40
13.0
 40
13.0
 40
13.0
 40
14.0
 40
14.0
 40
14.0
 40
14.0
 10
800.9774656200682
 20
279.1950167487777
 30
0.0
 10
800.9774656200682
 20
279.1950167487777
 30
0.0
 10
800.9774656200682
 20
276.3669378649361
 30
0.0
 10
800.9774656200682
 20
276.3669378649361
 30
0.0
 10
800.9774656200682
 20
276.3669378649361
 30
0.0
 10
800.3676837191789
 20
276.3669378649361
 30
0.0
 10
800.3676837191789
 20
276.3669378649361
 30
0.0
 10
800.3676837191789
 20
276.3669378649361
 30
0.0
 10
800.3676837191789
 20
276.7648463934824
 30
0.0
 10
800.3676837191789
 20
276.7648463934824
 30
0.0
 10
800.037643571692
 20
276.4348062459955
 30
0.0
 10
799.7241398825342
 20
276.3162949613029
 30
0.0
 10
799.1653453948268
 20
276.3162949613029
 30
0.0
 10
798.5896699392415
 20
276.3162949613029
 30
0.0
 10
798.2765107596323
 20
276.4175807685692
 30
0.0
 10
797.9885007770654
 20
276.6973225219715
 30
0.0
 10
797.7766274047225
 20
276.9002386460527
 30
0.0
 10
797.6749970879076
 20
277.2137423352104
 30
0.0
 10
797.6749970879076
 20
277.5437824826974
 30
0.0
 10
797.6749970879076
 20
278.2806884069923
 30
0.0
 10
798.1917614106951
 20
278.7461208070496
 30
0.0
 10
799.1229707203582
 20
278.7461208070496
 30
0.0
 10
799.1229707203582
 20
278.7461208070496
 30
0.0
 10
800.3676837191789
 20
278.7461208070496
 30
0.0
 10
800.3676837191789
 20
278.7461208070496
 30
0.0
 10
800.3676837191789
 20
278.7461208070496
 30
0.0
 10
800.3676837191789
 20
279.1443738451445
 30
0.0
 10
800.3676837191789
 20
279.1443738451445
 30
0.0
 10
800.3676837191789
 20
279.7455430073206
 30
0.0
 10
800.0714055074475
 20
280.0587021869298
 30
0.0
 10
799.3007376473971
 20
280.0587021869298
 30
0.0
 10
798.7760496049935
 20
280.0587021869298
 30
0.0
 10
798.5049205903043
 20
279.9233099343595
 30
0.0
 10
798.2510170530414
 20
279.5760443094463
 30
0.0
 10
798.2510170530414
 20
279.5760443094463
 30
0.0
 10
797.8358830470688
 20
279.9570718701149
 30
0.0
 10
797.8358830470688
 20
279.9570718701149
 30
0.0
 10
798.2000296398597
 20
280.4397297475984
 30
0.0
 10
798.623431874997
 20
280.5837347388818
 30
0.0
 10
799.3093503861102
 20
280.5837347388818
 30
0.0
 10
800.4355521002384
 20
280.5837347388818
 30
0.0
 10
800.9774656200682
 20
280.0924641226852
 30
0.0
 10
800.9774656200682
 20
279.1950167487777
 30
0.0
  0
SPLINE
  5
392
330
328
100
AcDbEntity
  8
Layer 1
370
     0
100
AcDbSpline
210
0.0
220
0.0
230
1.0
 70
    11
 71
     3
 72
    23
 73
    19
 74
     0
 42
0.0000000001
 43
0.0000000001
 12
1.0
 22
0.0
 32
0.0
 13
1.0
 23
0.0
 33
0.0
 40
0.0
 40
0.0
 40
0.0
 40
0.0
 40
1.0
 40
1.0
 40
1.0
 40
2.0
 40
2.0
 40
2.0
 40
3.0
 40
3.0
 40
3.0
 40
4.0
 40
4.0
 40
4.0
 40
5.0
 40
5.0
 40
5.0
 40
6.0
 40
6.0
 40
6.0
 40
6.0
 10
799.2077200692953
 20
278.288956636157
 30
0.0
 10
798.5810572005283
 20
278.288956636157
 30
0.0
 10
798.2678980209191
 20
278.0433213280587
 30
0.0
 10
798.2678980209191
 20
277.5523952214105
 30
0.0
 10
798.2678980209191
 20
277.069737343927
 30
0.0
 10
798.5641762326507
 20
276.8409830037064
 30
0.0
 10
799.2332137758862
 20
276.8409830037064
 30
0.0
 10
799.5804794007994
 20
276.8409830037064
 30
0.0
 10
799.8850258416954
 20
276.8750894490104
 30
0.0
 10
800.1561548563847
 20
277.1203802475602
 30
0.0
 10
800.300159847668
 20
277.256117009679
 30
0.0
 10
800.3676837191789
 20
277.4931395790642
 30
0.0
 10
800.3676837191789
 20
277.8404052039774
 30
0.0
 10
800.3676837191789
 20
277.8404052039774
 30
0.0
 10
800.3676837191789
 20
278.288956636157
 30
0.0
 10
800.3676837191789
 20
278.288956636157
 30
0.0
 10
800.3676837191789
 20
278.288956636157
 30
0.0
 10
799.2077200692953
 20
278.288956636157
 30
0.0
 10
799.2077200692953
 20
278.288956636157
 30
0.0
  0
HATCH
  5
393
330
328
100
AcDbEntity
  8
Layer 1
 62
     7
100
AcDbHatch
 10
0.0
 20
0.0
 30
0.0
210
0.0
220
0.0
230
1.0
  2
SOLID
 70
     1
 71
     0
 91
        2
 92
        1
 93
        1
 72
     4
 94
        3
 73
     0
 74
     1
 95
       47
 96
       43
 40
0.0
 40
0.0
 40
0.0
 40
0.0
 40
1.0
 40
1.0
 40
1.0
 40
2.0
 40
2.0
 40
2.0
 40
3.0
 40
3.0
 40
3.0
 40
4.0
 40
4.0
 40
4.0
 40
5.0
 40
5.0
 40
5.0
 40
6.0
 40
6.0
 40
6.0
 40
7.0
 40
7.0
 40
7.0
 40
8.0
 40
8.0
 40
8.0
 40
9.0
 40
9.0
 40
9.0
 40
10.0
 40
10.0
 40
10.0
 40
11.0
 40
11.0
 40
11.0
 40
12.0
 40
12.0
 40
12.0
 40
13.0
 40
13.0
 40
13.0
 40
14.0
 40
14.0
 40
14.0
 40
14.0
 10
800.9774656200682
 20
279.1950167487777
 10
800.9774656200682
 20
279.1950167487777
 10
800.9774656200682
 20
276.3669378649361
 10
800.9774656200682
 20
276.3669378649361
 10
800.9774656200682
 20
276.3669378649361
 10
800.3676837191789
 20
276.3669378649361
 10
800.3676837191789
 20
276.3669378649361
 10
800.3676837191789
 20
276.3669378649361
 10
800.3676837191789
 20
276.7648463934824
 10
800.3676837191789
 20
276.7648463934824
 10
800.037643571692
 20
276.4348062459955
 10
799.7241398825342
 20
276.3162949613029
 10
799.1653453948268
 20
276.3162949613029
 10
798.5896699392415
 20
276.3162949613029
 10
798.2765107596323
 20
276.4175807685692
 10
797.9885007770654
 20
276.6973225219715
 10
797.7766274047225
 20
276.9002386460527
 10
797.6749970879076
 20
277.2137423352104
 10
797.6749970879076
 20
277.5437824826974
 10
797.6749970879076
 20
278.2806884069923
 10
798.1917614106951
 20
278.7461208070496
 10
799.1229707203582
 20
278.7461208070496
 10
799.1229707203582
 20
278.7461208070496
 10
800.3676837191789
 20
278.7461208070496
 10
800.3676837191789
 20
278.7461208070496
 10
800.3676837191789
 20
278.7461208070496
 10
800.3676837191789
 20
279.1443738451445
 10
800.3676837191789
 20
279.1443738451445
 10
800.3676837191789
 20
279.7455430073206
 10
800.0714055074475
 20
280.0587021869298
 10
799.3007376473971
 20
280.0587021869298
 10
798.7760496049935
 20
280.0587021869298
 10
798.5049205903043
 20
279.9233099343595
 10
798.2510170530414
 20
279.5760443094463
 10
798.2510170530414
 20
279.5760443094463
 10
797.8358830470688
 20
279.9570718701149
 10
797.8358830470688
 20
279.9570718701149
 10
798.2000296398597
 20
280.4397297475984
 10
798.623431874997
 20
280.5837347388818
 10
799.3093503861102
 20
280.5837347388818
 10
800.4355521002384
 20
280.5837347388818
 10
800.9774656200682
 20
280.0924641226852
 10
800.9774656200682
 20
279.1950167487777
 97
        0
 92
        1
 93
        1
 72
     4
 94
        3
 73
     0
 74
     1
 95
       23
 96
       19
 40
0.0
 40
0.0
 40
0.0
 40
0.0
 40
1.0
 40
1.0
 40
1.0
 40
2.0
 40
2.0
 40
2.0
 40
3.0
 40
3.0
 40
3.0
 40
4.0
 40
4.0
 40
4.0
 40
5.0
 40
5.0
 40
5.0
 40
6.0
 40
6.0
 40
6.0
 40
6.0
 10
799.2077200692953
 20
278.288956636157
 10
798.5810572005283
 20
278.288956636157
 10
798.2678980209191
 20
278.0433213280587
 10
798.2678980209191
 20
277.5523952214105
 10
798.2678980209191
 20
277.069737343927
 10
798.5641762326507
 20
276.8409830037064
 10
799.2332137758862
 20
276.8409830037064
 10
799.5804794007994
 20
276.8409830037064
 10
799.8850258416954
 20
276.8750894490104
 10
800.1561548563847
 20
277.1203802475602
 10
800.300159847668
 20
277.256117009679
 10
800.3676837191789
 20
277.4931395790642
 10
800.3676837191789
 20
277.8404052039774
 10
800.3676837191789
 20
277.8404052039774
 10
800.3676837191789
 20
278.288956636157
 10
800.3676837191789
 20
278.288956636157
 10
800.3676837191789
 20
278.288956636157
 10
799.2077200692953
 20
278.288956636157
 10
799.2077200692953
 20
278.288956636157
 97
        0
 75
     2
 76
     1
 98
        0
  0
SPLINE
  5
394
330
328
100
AcDbEntity
  8
Layer 1
370
     0
100
AcDbSpline
210
0.0
220
0.0
230
1.0
 70
    11
 71
     3
 72
    38
 73
    34
 74
     0
 42
0.0000000001
 43
0.0000000001
 12
1.0
 22
0.0
 32
0.0
 13
1.0
 23
0.0
 33
0.0
 40
0.0
 40
0.0
 40
0.0
 40
0.0
 40
1.0
 40
1.0
 40
1.0
 40
2.0
 40
2.0
 40
2.0
 40
3.0
 40
3.0
 40
3.0
 40
4.0
 40
4.0
 40
4.0
 40
5.0
 40
5.0
 40
5.0
 40
6.0
 40
6.0
 40
6.0
 40
7.0
 40
7.0
 40
7.0
 40
8.0
 40
8.0
 40
8.0
 40
9.0
 40
9.0
 40
9.0
 40
10.0
 40
10.0
 40
10.0
 40
11.0
 40
11.0
 40
11.0
 40
11.0
 10
805.2614418559764
 20
280.2195881460909
 30
0.0
 10
805.676575861949
 20
279.8047986496668
 30
0.0
 10
805.7695934400507
 20
279.1188801385536
 30
0.0
 10
805.7695934400507
 20
278.4498425953181
 30
0.0
 10
805.7695934400507
 20
277.7811495616311
 30
0.0
 10
805.676575861949
 20
277.1034992796825
 30
0.0
 10
805.2614418559764
 20
276.6800970445453
 30
0.0
 10
805.0413002544689
 20
276.4599554430378
 30
0.0
 10
804.6774981712265
 20
276.3162949613029
 30
0.0
 10
804.2454831973762
 20
276.3162949613029
 30
0.0
 10
803.7883190264835
 20
276.3162949613029
 30
0.0
 10
803.4155596949795
 20
276.4261935072823
 30
0.0
 10
803.0686385796148
 20
276.8582084811327
 30
0.0
 10
803.0686385796148
 20
276.8582084811327
 30
0.0
 10
803.0686385796148
 20
274.5041747360615
 30
0.0
 10
803.0686385796148
 20
274.5041747360615
 30
0.0
 10
803.0686385796148
 20
274.5041747360615
 30
0.0
 10
802.4588566787256
 20
274.5041747360615
 30
0.0
 10
802.4588566787256
 20
274.5041747360615
 30
0.0
 10
802.4588566787256
 20
274.5041747360615
 30
0.0
 10
802.4588566787256
 20
280.5327473257001
 30
0.0
 10
802.4588566787256
 20
280.5327473257001
 30
0.0
 10
802.4588566787256
 20
280.5327473257001
 30
0.0
 10
803.0686385796148
 20
280.5327473257001
 30
0.0
 10
803.0686385796148
 20
280.5327473257001
 30
0.0
 10
803.0686385796148
 20
280.5327473257001
 30
0.0
 10
803.0686385796148
 20
280.0418212190521
 30
0.0
 10
803.0686385796148
 20
280.0418212190521
 30
0.0
 10
803.4155596949795
 20
280.4734916833539
 30
0.0
 10
803.7797062877704
 20
280.5837347388818
 30
0.0
 10
804.2454831973762
 20
280.5837347388818
 30
0.0
 10
804.6774981712265
 20
280.5837347388818
 30
0.0
 10
805.0413002544689
 20
280.4397297475984
 30
0.0
 10
805.2614418559764
 20
280.2195881460909
 30
0.0
  0
SPLINE
  5
395
330
328
100
AcDbEntity
  8
Layer 1
370
     0
100
AcDbSpline
210
0.0
220
0.0
230
1.0
 70
    11
 71
     3
 72
    17
 73
    13
 74
     0
 42
0.0000000001
 43
0.0000000001
 12
1.0
 22
0.0
 32
0.0
 13
1.0
 23
0.0
 33
0.0
 40
0.0
 40
0.0
 40
0.0
 40
0.0
 40
1.0
 40
1.0
 40
1.0
 40
2.0
 40
2.0
 40
2.0
 40
3.0
 40
3.0
 40
3.0
 40
4.0
 40
4.0
 40
4.0
 40
4.0
 10
803.0686385796148
 20
278.4498425953181
 30
0.0
 10
803.0686385796148
 20
277.6371445703477
 30
0.0
 10
803.2040308321851
 20
276.8582084811327
 30
0.0
 10
804.1183591739705
 20
276.8582084811327
 30
0.0
 10
805.0244192865912
 20
276.8582084811327
 30
0.0
 10
805.1598115391615
 20
277.6371445703477
 30
0.0
 10
805.1598115391615
 20
278.4498425953181
 30
0.0
 10
805.1598115391615
 20
279.2628851298371
 30
0.0
 10
805.0244192865912
 20
280.0418212190521
 30
0.0
 10
804.1183591739705
 20
280.0418212190521
 30
0.0
 10
803.2040308321851
 20
280.0418212190521
 30
0.0
 10
803.0686385796148
 20
279.2628851298371
 30
0.0
 10
803.0686385796148
 20
278.4498425953181
 30
0.0
  0
HATCH
  5
396
330
328
100
AcDbEntity
  8
Layer 1
 62
     7
100
AcDbHatch
 10
0.0
 20
0.0
 30
0.0
210
0.0
220
0.0
230
1.0
  2
SOLID
 70
     1
 71
     0
 91
        2
 92
        1
 93
        1
 72
     4
 94
        3
 73
     0
 74
     1
 95
       38
 96
       34
 40
0.0
 40
0.0
 40
0.0
 40
0.0
 40
1.0
 40
1.0
 40
1.0
 40
2.0
 40
2.0
 40
2.0
 40
3.0
 40
3.0
 40
3.0
 40
4.0
 40
4.0
 40
4.0
 40
5.0
 40
5.0
 40
5.0
 40
6.0
 40
6.0
 40
6.0
 40
7.0
 40
7.0
 40
7.0
 40
8.0
 40
8.0
 40
8.0
 40
9.0
 40
9.0
 40
9.0
 40
10.0
 40
10.0
 40
10.0
 40
11.0
 40
11.0
 40
11.0
 40
11.0
 10
805.2614418559764
 20
280.2195881460909
 10
805.676575861949
 20
279.8047986496668
 10
805.7695934400507
 20
279.1188801385536
 10
805.7695934400507
 20
278.4498425953181
 10
805.7695934400507
 20
277.7811495616311
 10
805.676575861949
 20
277.1034992796825
 10
805.2614418559764
 20
276.6800970445453
 10
805.0413002544689
 20
276.4599554430378
 10
804.6774981712265
 20
276.3162949613029
 10
804.2454831973762
 20
276.3162949613029
 10
803.7883190264835
 20
276.3162949613029
 10
803.4155596949795
 20
276.4261935072823
 10
803.0686385796148
 20
276.8582084811327
 10
803.0686385796148
 20
276.8582084811327
 10
803.0686385796148
 20
274.5041747360615
 10
803.0686385796148
 20
274.5041747360615
 10
803.0686385796148
 20
274.5041747360615
 10
802.4588566787256
 20
274.5041747360615
 10
802.4588566787256
 20
274.5041747360615
 10
802.4588566787256
 20
274.5041747360615
 10
802.4588566787256
 20
280.5327473257001
 10
802.4588566787256
 20
280.5327473257001
 10
802.4588566787256
 20
280.5327473257001
 10
803.0686385796148
 20
280.5327473257001
 10
803.0686385796148
 20
280.5327473257001
 10
803.0686385796148
 20
280.5327473257001
 10
803.0686385796148
 20
280.0418212190521
 10
803.0686385796148
 20
280.0418212190521
 10
803.4155596949795
 20
280.4734916833539
 10
803.7797062877704
 20
280.5837347388818
 10
804.2454831973762
 20
280.5837347388818
 10
804.6774981712265
 20
280.5837347388818
 10
805.0413002544689
 20
280.4397297475984
 10
805.2614418559764
 20
280.2195881460909
 97
        0
 92
        1
 93
        1
 72
     4
 94
        3
 73
     0
 74
     1
 95
       17
 96
       13
 40
0.0
 40
0.0
 40
0.0
 40
0.0
 40
1.0
 40
1.0
 40
1.0
 40
2.0
 40
2.0
 40
2.0
 40
3.0
 40
3.0
 40
3.0
 40
4.0
 40
4.0
 40
4.0
 40
4.0
 10
803.0686385796148
 20
278.4498425953181
 10
803.0686385796148
 20
277.6371445703477
 10
803.2040308321851
 20
276.8582084811327
 10
804.1183591739705
 20
276.8582084811327
 10
805.0244192865912
 20
276.8582084811327
 10
805.1598115391615
 20
277.6371445703477
 10
805.1598115391615
 20
278.4498425953181
 10
805.1598115391615
 20
279.2628851298371
 10
805.0244192865912
 20
280.0418212190521
 10
804.1183591739705
 20
280.0418212190521
 10
803.2040308321851
 20
280.0418212190521
 10
803.0686385796148
 20
279.2628851298371
 10
803.0686385796148
 20
278.4498425953181
 97
        0
 75
     2
 76
     1
 98
        0
  0
SPLINE
  5
397
330
328
100
AcDbEntity
  8
Layer 1
370
     0
100
AcDbSpline
210
0.0
220
0.0
230
1.0
 70
    11
 71
     3
 72
    53
 73
    49
 74
     0
 42
0.0000000001
 43
0.0000000001
 12
1.0
 22
0.0
 32
0.0
 13
1.0
 23
0.0
 33
0.0
 40
0.0
 40
0.0
 40
0.0
 40
0.0
 40
1.0
 40
1.0
 40
1.0
 40
2.0
 40
2.0
 40
2.0
 40
3.0
 40
3.0
 40
3.0
 40
4.0
 40
4.0
 40
4.0
 40
5.0
 40
5.0
 40
5.0
 40
6.0
 40
6.0
 40
6.0
 40
7.0
 40
7.0
 40
7.0
 40
8.0
 40
8.0
 40
8.0
 40
9.0
 40
9.0
 40
9.0
 40
10.0
 40
10.0
 40
10.0
 40
11.0
 40
11.0
 40
11.0
 40
12.0
 40
12.0
 40
12.0
 40
13.0
 40
13.0
 40
13.0
 40
14.0
 40
14.0
 40
14.0
 40
15.0
 40
15.0
 40
15.0
 40
16.0
 40
16.0
 40
16.0
 40
16.0
 10
809.8930282263462
 20
280.1348387971538
 30
0.0
 10
809.8930282263462
 20
280.1348387971538
 30
0.0
 10
809.4947751882513
 20
279.7369302686075
 30
0.0
 10
809.4947751882513
 20
279.7369302686075
 30
0.0
 10
809.1984969765199
 20
279.965684608828
 30
0.0
 10
808.8174694158512
 20
280.0673149256429
 30
0.0
 10
808.3857989515494
 20
280.0673149256429
 30
0.0
 10
807.7760170506602
 20
280.0673149256429
 30
0.0
 10
807.4542451323379
 20
279.8130668788315
 30
0.0
 10
807.4542451323379
 20
279.3813964145297
 30
0.0
 10
807.4542451323379
 20
279.0086370830256
 30
0.0
 10
807.6829994725584
 20
278.8226019268221
 30
0.0
 10
808.1994192857974
 20
278.7716145136404
 30
0.0
 10
808.1994192857974
 20
278.7716145136404
 30
0.0
 10
808.8512313516067
 20
278.7123588712942
 30
0.0
 10
808.8512313516067
 20
278.7123588712942
 30
0.0
 10
809.5795245371885
 20
278.6448349997833
 30
0.0
 10
810.0790633825497
 20
278.3737059850941
 30
0.0
 10
810.0790633825497
 20
277.586157157166
 30
0.0
 10
810.0790633825497
 20
276.7817273613601
 30
0.0
 10
809.4017576101496
 20
276.3162949613029
 30
0.0
 10
808.3857989515494
 20
276.3162949613029
 30
0.0
 10
807.6743867338454
 20
276.3162949613029
 30
0.0
 10
807.124204984851
 20
276.477180920464
 30
0.0
 10
806.6753090431229
 20
276.917464123479
 30
0.0
 10
806.6753090431229
 20
276.917464123479
 30
0.0
 10
807.0818303103823
 20
277.3236408811899
 30
0.0
 10
807.0818303103823
 20
277.3236408811899
 30
0.0
 10
807.4036022287047
 20
276.9849879949899
 30
0.0
 10
807.8607663995973
 20
276.8409830037064
 30
0.0
 10
808.3771862128362
 20
276.8409830037064
 30
0.0
 10
809.0713729531142
 20
276.8409830037064
 30
0.0
 10
809.4865069590868
 20
277.0866183118047
 30
0.0
 10
809.4865069590868
 20
277.5778889280014
 30
0.0
 10
809.4865069590868
 20
277.9503037499569
 30
0.0
 10
809.283246325457
 20
278.1449516448735
 30
0.0
 10
808.7919757092603
 20
278.187326319342
 30
0.0
 10
808.7919757092603
 20
278.187326319342
 30
0.0
 10
808.1064017076957
 20
278.2465819616884
 30
0.0
 10
808.1064017076957
 20
278.2465819616884
 30
0.0
 10
807.2933591731767
 20
278.3144503427478
 30
0.0
 10
806.8616887088749
 20
278.6699841968256
 30
0.0
 10
806.8616887088749
 20
279.3645154466519
 30
0.0
 10
806.8616887088749
 20
280.1265705679892
 30
0.0
 10
807.4966198068064
 20
280.5837347388818
 30
0.0
 10
808.394067180714
 20
280.5837347388818
 30
0.0
 10
808.9952363428902
 20
280.5837347388818
 30
0.0
 10
809.5120006656776
 20
280.4397297475984
 30
0.0
 10
809.8930282263462
 20
280.1348387971538
 30
0.0
  0
HATCH
  5
398
330
328
100
AcDbEntity
  8
Layer 1
 62
     7
100
AcDbHatch
 10
0.0
 20
0.0
 30
0.0
210
0.0
220
0.0
230
1.0
  2
SOLID
 70
     1
 71
     0
 91
        1
 92
        1
 93
        1
 72
     4
 94
        3
 73
     0
 74
     1
 95
       53
 96
       49
 40
0.0
 40
0.0
 40
0.0
 40
0.0
 40
1.0
 40
1.0
 40
1.0
 40
2.0
 40
2.0
 40
2.0
 40
3.0
 40
3.0
 40
3.0
 40
4.0
 40
4.0
 40
4.0
 40
5.0
 40
5.0
 40
5.0
 40
6.0
 40
6.0
 40
6.0
 40
7.0
 40
7.0
 40
7.0
 40
8.0
 40
8.0
 40
8.0
 40
9.0
 40
9.0
 40
9.0
 40
10.0
 40
10.0
 40
10.0
 40
11.0
 40
11.0
 40
11.0
 40
12.0
 40
12.0
 40
12.0
 40
13.0
 40
13.0
 40
13.0
 40
14.0
 40
14.0
 40
14.0
 40
15.0
 40
15.0
 40
15.0
 40
16.0
 40
16.0
 40
16.0
 40
16.0
 10
809.8930282263462
 20
280.1348387971538
 10
809.8930282263462
 20
280.1348387971538
 10
809.4947751882513
 20
279.7369302686075
 10
809.4947751882513
 20
279.7369302686075
 10
809.1984969765199
 20
279.965684608828
 10
808.8174694158512
 20
280.0673149256429
 10
808.3857989515494
 20
280.0673149256429
 10
807.7760170506602
 20
280.0673149256429
 10
807.4542451323379
 20
279.8130668788315
 10
807.4542451323379
 20
279.3813964145297
 10
807.4542451323379
 20
279.0086370830256
 10
807.6829994725584
 20
278.8226019268221
 10
808.1994192857974
 20
278.7716145136404
 10
808.1994192857974
 20
278.7716145136404
 10
808.8512313516067
 20
278.7123588712942
 10
808.8512313516067
 20
278.7123588712942
 10
809.5795245371885
 20
278.6448349997833
 10
810.0790633825497
 20
278.3737059850941
 10
810.0790633825497
 20
277.586157157166
 10
810.0790633825497
 20
276.7817273613601
 10
809.4017576101496
 20
276.3162949613029
 10
808.3857989515494
 20
276.3162949613029
 10
807.6743867338454
 20
276.3162949613029
 10
807.124204984851
 20
276.477180920464
 10
806.6753090431229
 20
276.917464123479
 10
806.6753090431229
 20
276.917464123479
 10
807.0818303103823
 20
277.3236408811899
 10
807.0818303103823
 20
277.3236408811899
 10
807.4036022287047
 20
276.9849879949899
 10
807.8607663995973
 20
276.8409830037064
 10
808.3771862128362
 20
276.8409830037064
 10
809.0713729531142
 20
276.8409830037064
 10
809.4865069590868
 20
277.0866183118047
 10
809.4865069590868
 20
277.5778889280014
 10
809.4865069590868
 20
277.9503037499569
 10
809.283246325457
 20
278.1449516448735
 10
808.7919757092603
 20
278.187326319342
 10
808.7919757092603
 20
278.187326319342
 10
808.1064017076957
 20
278.2465819616884
 10
808.1064017076957
 20
278.2465819616884
 10
807.2933591731767
 20
278.3144503427478
 10
806.8616887088749
 20
278.6699841968256
 10
806.8616887088749
 20
279.3645154466519
 10
806.8616887088749
 20
280.1265705679892
 10
807.4966198068064
 20
280.5837347388818
 10
808.394067180714
 20
280.5837347388818
 10
808.9952363428902
 20
280.5837347388818
 10
809.5120006656776
 20
280.4397297475984
 10
809.8930282263462
 20
280.1348387971538
 97
        0
 75
     2
 76
     1
 98
        0
  0
ENDBLK
  5
32B
330
328
100
AcDbEntity
  8
0
100
AcDbBlockEnd
  0
ENDSEC
  0
SECTION
  2
ENTITIES
  0
INSERT
  5
42
330
1F
100
AcDbEntity
  8
Layer 1
100
AcDbBlockReference
  2
block 2
 10
0.0
 20
0.0
 30
0.0
  0
INSERT
  5
84
330
1F
100
AcDbEntity
  8
Layer 1
100
AcDbBlockReference
  2
block 3
 10
0.0
 20
0.0
 30
0.0
  0
INSERT
  5
C3
330
1F
100
AcDbEntity
  8
Layer 1
100
AcDbBlockReference
  2
block 4
 10
0.0
 20
0.0
 30
0.0
  0
INSERT
  5
EC
330
1F
100
AcDbEntity
  8
Layer 1
100
AcDbBlockReference
  2
block 5
 10
0.0
 20
0.0
 30
0.0
  0
INSERT
  5
109
330
1F
100
AcDbEntity
  8
Layer 1
100
AcDbBlockReference
  2
block 6
 10
0.0
 20
0.0
 30
0.0
  0
INSERT
  5
1C5
330
1F
100
AcDbEntity
  8
Layer 1
100
AcDbBlockReference
  2
block 7
 10
0.0
 20
0.0
 30
0.0
  0
INSERT
  5
1D6
330
1F
100
AcDbEntity
  8
Layer 1
100
AcDbBlockReference
  2
block 8
 10
0.0
 20
0.0
 30
0.0
  0
INSERT
  5
1E7
330
1F
100
AcDbEntity
  8
Layer 1
100
AcDbBlockReference
  2
block 9
 10
0.0
 20
0.0
 30
0.0
  0
INSERT
  5
317
330
1F
100
AcDbEntity
  8
Layer 1
100
AcDbBlockReference
  2
block 10
 10
0.0
 20
0.0
 30
0.0
  0
ENDSEC
  0
SECTION
  2
OBJECTS
  0
DICTIONARY
  5
C
330
0
100
AcDbDictionary
281
     1
  3
ACAD_GROUP
350
D
  3
ACAD_LAYOUT
350
1A
  3
ACAD_MATERIAL
350
3B
  3
ACAD_MLEADERSTYLE
350
39B
  3
ACAD_MLINESTYLE
350
17
  3
ACAD_PLOTSETTINGS
350
19
  3
ACAD_PLOTSTYLENAME
350
E
  3
ACAD_VISUALSTYLE
350
2A
  3
AcDbVariableDictionary
350
399
  0
DICTIONARY
  5
D
102
{ACAD_REACTORS
330
C
102
}
330
C
100
AcDbDictionary
281
     1
  0
DICTIONARY
  5
1A
102
{ACAD_REACTORS
330
C
102
}
330
C
100
AcDbDictionary
281
     1
  3
Layout1
350
1E
  3
Layout2
350
26
  3
Model
350
22
  0
DICTIONARY
  5
3B
102
{ACAD_REACTORS
330
C
102
}
330
C
100
AcDbDictionary
281
     1
  3
ByBlock
350
3D
  3
ByLayer
350
3C
  3
Global
350
3E
  0
DICTIONARY
  5
39B
102
{ACAD_REACTORS
330
C
102
}
330
C
100
AcDbDictionary
281
     1
  0
DICTIONARY
  5
17
102
{ACAD_REACTORS
330
C
102
}
330
C
100
AcDbDictionary
281
     1
  3
Standard
350
18
  0
DICTIONARY
  5
19
102
{ACAD_REACTORS
330
C
102
}
330
C
100
AcDbDictionary
281
     1
  0
ACDBDICTIONARYWDFLT
  5
E
102
{ACAD_REACTORS
330
C
102
}
330
C
100
AcDbDictionary
281
     1
  3
Normal
350
F
100
AcDbDictionaryWithDefault
340
F
  0
DICTIONARY
  5
2A
102
{ACAD_REACTORS
330
C
102
}
330
C
100
AcDbDictionary
281
     1
  3
2dWireframe
350
2F
  3
3D Hidden
350
31
  3
3dWireframe
350
30
  3
Basic
350
32
  3
Brighten
350
36
  3
ColorChange
350
3A
  3
Conceptual
350
34
  3
Dim
350
35
  3
Facepattern
350
39
  3
Flat
350
2B
  3
FlatWithEdges
350
2C
  3
Gouraud
350
2D
  3
GouraudWithEdges
350
2E
  3
Linepattern
350
38
  3
Realistic
350
33
  3
Thicken
350
37
  0
DICTIONARY
  5
399
102
{ACAD_REACTORS
330
C
102
}
330
C
100
AcDbDictionary
281
     1
  3
DIMASSOC
350
39C
  3
HIDETEXT
350
39D
  0
LAYOUT
  5
1E
102
{ACAD_REACTORS
330
1A
102
}
330
1A
100
AcDbPlotSettings
  1

  2
none_device
  4

  6

 40
0.0
 41
0.0
 42
0.0
 43
0.0
 44
0.0
 45
0.0
 46
0.0
 47
0.0
 48
0.0
 49
0.0
140
0.0
141
0.0
142
1.0
143
1.0
 70
   688
 72
     0
 73
     0
 74
     5
  7

 75
    16
147
1.0
148
0.0
149
0.0
100
AcDbLayout
  1
Layout1
 70
     1
 71
     1
 10
0.0
 20
0.0
 11
12.0
 21
9.0
 12
0.0
 22
0.0
 32
0.0
 14
1.000000000000000E+20
 24
1.000000000000000E+20
 34
1.000000000000000E+20
 15
-1.000000000000000E+20
 25
-1.000000000000000E+20
 35
-1.000000000000000E+20
146
0.0
 13
0.0
 23
0.0
 33
0.0
 16
1.0
 26
0.0
 36
0.0
 17
0.0
 27
1.0
 37
0.0
 76
     0
330
1B
  0
LAYOUT
  5
26
102
{ACAD_REACTORS
330
1A
102
}
330
1A
100
AcDbPlotSettings
  1

  2
none_device
  4

  6

 40
0.0
 41
0.0
 42
0.0
 43
0.0
 44
0.0
 45
0.0
 46
0.0
 47
0.0
 48
0.0
 49
0.0
140
0.0
141
0.0
142
1.0
143
1.0
 70
   688
 72
     0
 73
     0
 74
     5
  7

 75
    16
147
1.0
148
0.0
149
0.0
100
AcDbLayout
  1
Layout2
 70
     1
 71
     2
 10
0.0
 20
0.0
 11
0.0
 21
0.0
 12
0.0
 22
0.0
 32
0.0
 14
0.0
 24
0.0
 34
0.0
 15
0.0
 25
0.0
 35
0.0
146
0.0
 13
0.0
 23
0.0
 33
0.0
 16
1.0
 26
0.0
 36
0.0
 17
0.0
 27
1.0
 37
0.0
 76
     0
330
23
  0
LAYOUT
  5
22
102
{ACAD_REACTORS
330
1A
102
}
330
1A
100
AcDbPlotSettings
  1

  2
none_device
  4

  6

 40
0.0
 41
0.0
 42
0.0
 43
0.0
 44
0.0
 45
0.0
 46
0.0
 47
0.0
 48
0.0
 49
0.0
140
0.0
141
0.0
142
1.0
143
1.0
 70
  1712
 72
     0
 73
     0
 74
     0
  7

 75
     0
147
1.0
148
0.0
149
0.0
100
AcDbLayout
  1
Model
 70
     1
 71
     0
 10
0.0
 20
0.0
 11
12.0
 21
9.0
 12
0.0
 22
0.0
 32
0.0
 14
1.000000000000000E+20
 24
1.000000000000000E+20
 34
1.000000000000000E+20
 15
-1.000000000000000E+20
 25
-1.000000000000000E+20
 35
-1.000000000000000E+20
146
0.0
 13
0.0
 23
0.0
 33
0.0
 16
1.0
 26
0.0
 36
0.0
 17
0.0
 27
1.0
 37
0.0
 76
     0
330
1F
331
29
  0
MATERIAL
  5
3D
102
{ACAD_REACTORS
330
3B
102
}
102
{ACAD_XDICTIONARY
360
3C0
102
}
330
3B
100
AcDbMaterial
  1
ByBlock
  0
MATERIAL
  5
3C
102
{ACAD_REACTORS
330
3B
102
}
102
{ACAD_XDICTIONARY
360
3BE
102
}
330
3B
100
AcDbMaterial
  1
ByLayer
  0
MATERIAL
  5
3E
102
{ACAD_REACTORS
330
3B
102
}
102
{ACAD_XDICTIONARY
360
3C2
102
}
330
3B
100
AcDbMaterial
  1
Global
  0
MLINESTYLE
  5
18
102
{ACAD_REACTORS
330
17
102
}
330
17
100
AcDbMlineStyle
  2
Standard
 70
     0
  3

 62
   256
 51
90.0
 52
90.0
 71
     2
 49
0.5
 62
   256
  6
BYLAYER
 49
-0.5
 62
   256
  6
BYLAYER
  0
ACDBPLACEHOLDER
  5
F
102
{ACAD_REACTORS
330
E
102
}
330
E
  0
VISUALSTYLE
  5
2F
102
{ACAD_REACTORS
330
2A
102
}
102
{ACAD_XDICTIONARY
360
3A6
102
}
330
2A
100
AcDbVisualStyle
  2
2dWireframe
 70
     4
 71
     0
 72
     2
 73
     0
 90
        0
 40
-0.6
 41
-30.0
 62
     5
 63
     7
 74
     1
 91
        4
 64
     7
 65
   257
 75
     1
175
     1
 42
1.0
 92
        0
 66
   257
 43
1.0
 76
     1
 77
     6
 78
     2
 67
     7
 79
     5
170
     0
171
     0
290
     0
174
     0
 93
        1
 44
0.0
173
     0
291
     0
 45
0.0
1001
ACAD
1000
AcDbSavedByObjectVersion
1070
     0
  0
VISUALSTYLE
  5
31
102
{ACAD_REACTORS
330
2A
102
}
102
{ACAD_XDICTIONARY
360
3AA
102
}
330
2A
100
AcDbVisualStyle
  2
3D Hidden
 70
     6
 71
     1
 72
     2
 73
     2
 90
        0
 40
-0.6
 41
-30.0
 62
     5
 63
     7
 74
     2
 91
        2
 64
     7
 65
   257
 75
     2
175
     1
 42
40.0
 92
        0
 66
   257
 43
1.0
 76
     1
 77
     6
 78
     2
 67
     7
 79
     3
170
     0
171
     0
290
     0
174
     0
 93
        1
 44
0.0
173
     0
291
     0
 45
0.0
1001
ACAD
1000
AcDbSavedByObjectVersion
1070
     0
  0
VISUALSTYLE
  5
30
102
{ACAD_REACTORS
330
2A
102
}
102
{ACAD_XDICTIONARY
360
3A8
102
}
330
2A
100
AcDbVisualStyle
  2
3dWireframe
 70
     5
 71
     0
 72
     2
 73
     0
 90
        0
 40
-0.6
 41
-30.0
 62
     5
 63
     7
 74
     1
 91
        4
 64
     7
 65
   257
 75
     1
175
     1
 42
1.0
 92
        0
 66
   257
 43
1.0
 76
     1
 77
     6
 78
     2
 67
     7
 79
     5
170
     0
171
     0
290
     0
174
     0
 93
        1
 44
0.0
173
     0
291
     0
 45
0.0
1001
ACAD
1000
AcDbSavedByObjectVersion
1070
     0
  0
VISUALSTYLE
  5
32
102
{ACAD_REACTORS
330
2A
102
}
102
{ACAD_XDICTIONARY
360
3AC
102
}
330
2A
100
AcDbVisualStyle
  2
Basic
 70
     7
 71
     1
 72
     0
 73
     1
 90
        0
 40
-0.6
 41
-30.0
 62
     5
 63
     7
 74
     0
 91
        4
 64
     7
 65
   257
 75
     1
175
     1
 42
1.0
 92
        8
 66
     7
 43
1.0
 76
     1
 77
     6
 78
     2
 67
     7
 79
     5
170
     0
171
     0
290
     0
174
     0
 93
        1
 44
0.0
173
     0
291
     1
 45
0.0
1001
ACAD
1000
AcDbSavedByObjectVersion
1070
     0
  0
VISUALSTYLE
  5
36
102
{ACAD_REACTORS
330
2A
102
}
102
{ACAD_XDICTIONARY
360
3B4
102
}
330
2A
100
AcDbVisualStyle
  2
Brighten
 70
    12
 71
     2
 72
     2
 73
     0
 90
        0
 40
-0.6
 41
-30.0
 62
     5
 63
     7
 74
     1
 91
        4
 64
     7
 65
   257
 75
     1
175
     1
 42
1.0
 92
        8
 66
     7
 43
1.0
 76
     1
 77
     6
 78
     2
 67
     7
 79
     5
170
     0
171
     0
290
     0
174
     0
 93
        1
 44
50.0
173
     0
291
     1
 45
0.0
1001
ACAD
1000
AcDbSavedByObjectVersion
1070
     0
  0
VISUALSTYLE
  5
3A
102
{ACAD_REACTORS
330
2A
102
}
102
{ACAD_XDICTIONARY
360
3BC
102
}
330
2A
100
AcDbVisualStyle
  2
ColorChange
 70
    16
 71
     2
 72
     2
 73
     3
 90
        0
 40
-0.6
 41
-30.0
 62
     5
 63
     8
 74
     1
 91
        4
 64
     7
 65
   257
 75
     1
175
     1
 42
1.0
 92
        8
 66
     8
 43
1.0
 76
     1
 77
     6
 78
     2
 67
     7
 79
     5
170
     0
171
     0
290
     0
174
     0
 93
        1
 44
0.0
173
     0
291
     1
 45
0.0
1001
ACAD
1000
AcDbSavedByObjectVersion
1070
     0
  0
VISUALSTYLE
  5
34
102
{ACAD_REACTORS
330
2A
102
}
102
{ACAD_XDICTIONARY
360
3B0
102
}
330
2A
100
AcDbVisualStyle
  2
Conceptual
 70
     9
 71
     3
 72
     2
 73
     0
 90
        0
 40
-0.6
 41
-30.0
 62
     5
 63
     7
 74
     2
 91
        2
 64
     7
 65
   257
 75
     1
175
     1
 42
40.0
 92
        8
 66
     7
 43
1.0
 76
     1
 77
     6
 78
     2
 67
     7
 79
     3
170
     0
171
     0
290
     0
174
     0
 93
        1
 44
0.0
173
     0
291
     0
 45
0.0
1001
ACAD
1000
AcDbSavedByObjectVersion
1070
     0
  0
VISUALSTYLE
  5
35
102
{ACAD_REACTORS
330
2A
102
}
102
{ACAD_XDICTIONARY
360
3B2
102
}
330
2A
100
AcDbVisualStyle
  2
Dim
 70
    11
 71
     2
 72
     2
 73
     0
 90
        0
 40
-0.6
 41
-30.0
 62
     5
 63
     7
 74
     1
 91
        4
 64
     7
 65
   257
 75
     1
175
     1
 42
1.0
 92
        8
 66
     7
 43
1.0
 76
     1
 77
     6
 78
     2
 67
     7
 79
     5
170
     0
171
     0
290
     0
174
     0
 93
        1
 44
-50.0
173
     0
291
     1
 45
0.0
1001
ACAD
1000
AcDbSavedByObjectVersion
1070
     0
  0
VISUALSTYLE
  5
39
102
{ACAD_REACTORS
330
2A
102
}
102
{ACAD_XDICTIONARY
360
3BA
102
}
330
2A
100
AcDbVisualStyle
  2
Facepattern
 70
    15
 71
     2
 72
     2
 73
     0
 90
        0
 40
-0.6
 41
-30.0
 62
     5
 63
     7
 74
     1
 91
        4
 64
     7
 65
   257
 75
     1
175
     1
 42
1.0
 92
        8
 66
     7
 43
1.0
 76
     1
 77
     6
 78
     2
 67
     7
 79
     5
170
     0
171
     0
290
     0
174
     0
 93
        1
 44
0.0
173
     0
291
     1
 45
0.0
1001
ACAD
1000
AcDbSavedByObjectVersion
1070
     0
  0
VISUALSTYLE
  5
2B
102
{ACAD_REACTORS
330
2A
102
}
102
{ACAD_XDICTIONARY
360
39E
102
}
330
2A
100
AcDbVisualStyle
  2
Flat
 70
     0
 71
     2
 72
     1
 73
     1
 90
        2
 40
-0.6
 41
30.0
 62
     5
 63
     7
 74
     0
 91
        4
 64
     7
 65
   257
 75
     1
175
     1
 42
1.0
 92
        8
 66
     7
 43
1.0
 76
     1
 77
     6
 78
     2
 67
     7
 79
     5
170
     0
171
     0
290
     0
174
     0
 93
       13
 44
0.0
173
     0
291
     1
 45
0.0
1001
ACAD
1000
AcDbSavedByObjectVersion
1070
     0
  0
VISUALSTYLE
  5
2C
102
{ACAD_REACTORS
330
2A
102
}
102
{ACAD_XDICTIONARY
360
3A0
102
}
330
2A
100
AcDbVisualStyle
  2
FlatWithEdges
 70
     1
 71
     2
 72
     1
 73
     1
 90
        2
 40
-0.6
 41
30.0
 62
     5
 63
     7
 74
     1
 91
        4
 64
     7
 65
   257
 75
     1
175
     1
 42
1.0
 92
        0
 66
   257
 43
1.0
 76
     1
 77
     6
 78
     2
 67
     7
 79
     5
170
     0
171
     0
290
     0
174
     0
 93
       13
 44
0.0
173
     0
291
     1
 45
0.0
1001
ACAD
1000
AcDbSavedByObjectVersion
1070
     0
  0
VISUALSTYLE
  5
2D
102
{ACAD_REACTORS
330
2A
102
}
102
{ACAD_XDICTIONARY
360
3A2
102
}
330
2A
100
AcDbVisualStyle
  2
Gouraud
 70
     2
 71
     2
 72
     2
 73
     1
 90
        2
 40
-0.6
 41
30.0
 62
     5
 63
     7
 74
     0
 91
        4
 64
     7
 65
   257
 75
     1
175
     1
 42
1.0
 92
        0
 66
     7
 43
1.0
 76
     1
 77
     6
 78
     2
 67
     7
 79
     5
170
     0
171
     0
290
     0
174
     0
 93
       13
 44
0.0
173
     0
291
     1
 45
0.0
1001
ACAD
1000
AcDbSavedByObjectVersion
1070
     0
  0
VISUALSTYLE
  5
2E
102
{ACAD_REACTORS
330
2A
102
}
102
{ACAD_XDICTIONARY
360
3A4
102
}
330
2A
100
AcDbVisualStyle
  2
GouraudWithEdges
 70
     3
 71
     2
 72
     2
 73
     1
 90
        2
 40
-0.6
 41
30.0
 62
     5
 63
     7
 74
     1
 91
        4
 64
     7
 65
   257
 75
     1
175
     1
 42
1.0
 92
        0
 66
   257
 43
1.0
 76
     1
 77
     6
 78
     2
 67
     7
 79
     5
170
     0
171
     0
290
     0
174
     0
 93
       13
 44
0.0
173
     0
291
     1
 45
0.0
1001
ACAD
1000
AcDbSavedByObjectVersion
1070
     0
  0
VISUALSTYLE
  5
38
102
{ACAD_REACTORS
330
2A
102
}
102
{ACAD_XDICTIONARY
360
3B8
102
}
330
2A
100
AcDbVisualStyle
  2
Linepattern
 70
    14
 71
     2
 72
     2
 73
     0
 90
        0
 40
-0.6
 41
-30.0
 62
     5
 63
     7
 74
     1
 91
        4
 64
     7
 65
   257
 75
     7
175
     7
 42
1.0
 92
        8
 66
     7
 43
1.0
 76
     1
 77
     6
 78
     2
 67
     7
 79
     5
170
     0
171
     0
290
     0
174
     0
 93
        1
 44
0.0
173
     0
291
     1
 45
0.0
1001
ACAD
1000
AcDbSavedByObjectVersion
1070
     0
  0
VISUALSTYLE
  5
33
102
{ACAD_REACTORS
330
2A
102
}
102
{ACAD_XDICTIONARY
360
3AE
102
}
330
2A
100
AcDbVisualStyle
  2
Realistic
 70
     8
 71
     2
 72
     2
 73
     0
 90
        0
 40
-0.6
 41
-30.0
 62
     5
 63
     7
 74
     1
 91
        0
 64
     7
 65
   257
 75
     1
175
     1
 42
1.0
 92
        8
 66
     8
 43
1.0
 76
     1
 77
     6
 78
     2
 67
     7
 79
     5
170
     0
171
     0
290
     0
174
     0
 93
       13
 44
0.0
173
     0
291
     0
 45
0.0
1001
ACAD
1000
AcDbSavedByObjectVersion
1070
     0
  0
VISUALSTYLE
  5
37
102
{ACAD_REACTORS
330
2A
102
}
102
{ACAD_XDICTIONARY
360
3B6
102
}
330
2A
100
AcDbVisualStyle
  2
Thicken
 70
    13
 71
     2
 72
     2
 73
     0
 90
        0
 40
-0.6
 41
-30.0
 62
     5
 63
     7
 74
     1
 91
        4
 64
     7
 65
   257
 75
     1
175
     1
 42
1.0
 92
       12
 66
     7
 43
1.0
 76
     1
 77
     6
 78
     2
 67
     7
 79
     5
170
     0
171
     0
290
     0
174
     0
 93
        1
 44
0.0
173
     0
291
     1
 45
0.0
1001
ACAD
1000
AcDbSavedByObjectVersion
1070
     0
  0
DICTIONARYVAR
  5
39C
102
{ACAD_REACTORS
330
399
102
}
330
399
100
DictionaryVariables
280
     0
  1
2
  0
DICTIONARYVAR
  5
39D
102
{ACAD_REACTORS
330
399
102
}
330
399
100
DictionaryVariables
280
     0
  1
1
  0
DICTIONARY
  5
3C0
330
3D
100
AcDbDictionary
280
     1
281
     1
  3
ACAD_XREC_ROUNDTRIP
360
3C1
  0
DICTIONARY
  5
3BE
330
3C
100
AcDbDictionary
280
     1
281
     1
  3
ACAD_XREC_ROUNDTRIP
360
3BF
  0
DICTIONARY
  5
3C2
330
3E
100
AcDbDictionary
280
     1
281
     1
  3
ACAD_XREC_ROUNDTRIP
360
3C3
  0
DICTIONARY
  5
3A6
330
2F
100
AcDbDictionary
280
     1
281
     1
  3
ACAD_XREC_ROUNDTRIP
360
3A7
  0
DICTIONARY
  5
3AA
330
31
100
AcDbDictionary
280
     1
281
     1
  3
ACAD_XREC_ROUNDTRIP
360
3AB
  0
DICTIONARY
  5
3A8
330
30
100
AcDbDictionary
280
     1
281
     1
  3
ACAD_XREC_ROUNDTRIP
360
3A9
  0
DICTIONARY
  5
3AC
330
32
100
AcDbDictionary
280
     1
281
     1
  3
ACAD_XREC_ROUNDTRIP
360
3AD
  0
DICTIONARY
  5
3B4
330
36
100
AcDbDictionary
280
     1
281
     1
  3
ACAD_XREC_ROUNDTRIP
360
3B5
  0
DICTIONARY
  5
3BC
330
3A
100
AcDbDictionary
280
     1
281
     1
  3
ACAD_XREC_ROUNDTRIP
360
3BD
  0
DICTIONARY
  5
3B0
330
34
100
AcDbDictionary
280
     1
281
     1
  3
ACAD_XREC_ROUNDTRIP
360
3B1
  0
DICTIONARY
  5
3B2
330
35
100
AcDbDictionary
280
     1
281
     1
  3
ACAD_XREC_ROUNDTRIP
360
3B3
  0
DICTIONARY
  5
3BA
330
39
100
AcDbDictionary
280
     1
281
     1
  3
ACAD_XREC_ROUNDTRIP
360
3BB
  0
DICTIONARY
  5
39E
330
2B
100
AcDbDictionary
280
     1
281
     1
  3
ACAD_XREC_ROUNDTRIP
360
39F
  0
DICTIONARY
  5
3A0
330
2C
100
AcDbDictionary
280
     1
281
     1
  3
ACAD_XREC_ROUNDTRIP
360
3A1
  0
DICTIONARY
  5
3A2
330
2D
100
AcDbDictionary
280
     1
281
     1
  3
ACAD_XREC_ROUNDTRIP
360
3A3
  0
DICTIONARY
  5
3A4
330
2E
100
AcDbDictionary
280
     1
281
     1
  3
ACAD_XREC_ROUNDTRIP
360
3A5
  0
DICTIONARY
  5
3B8
330
38
100
AcDbDictionary
280
     1
281
     1
  3
ACAD_XREC_ROUNDTRIP
360
3B9
  0
DICTIONARY
  5
3AE
330
33
100
AcDbDictionary
280
     1
281
     1
  3
ACAD_XREC_ROUNDTRIP
360
3AF
  0
DICTIONARY
  5
3B6
330
37
100
AcDbDictionary
280
     1
281
     1
  3
ACAD_XREC_ROUNDTRIP
360
3B7
  0
XRECORD
  5
3C1
102
{ACAD_REACTORS
330
3C0
102
}
330
3C0
100
AcDbXrecord
280
     1
102
MATERIAL
148
0.0
149
0.0
149
0.0
 93
        0
 94
      127
282
     0
 72
     1
 77
     1
171
     1
175
     1
179
     1
273
     0
  0
XRECORD
  5
3BF
102
{ACAD_REACTORS
330
3BE
102
}
330
3BE
100
AcDbXrecord
280
     1
102
MATERIAL
148
0.0
149
0.0
149
0.0
 93
        0
 94
      127
282
     0
 72
     1
 77
     1
171
     1
175
     1
179
     1
273
     0
  0
XRECORD
  5
3C3
102
{ACAD_REACTORS
330
3C2
102
}
330
3C2
100
AcDbXrecord
280
     1
102
MATERIAL
148
0.0
149
0.0
149
0.0
 93
        0
 94
      127
282
     0
 72
     1
 77
     1
171
     1
175
     1
179
     1
273
     0
  0
XRECORD
  5
3A7
102
{ACAD_REACTORS
330
3A6
102
}
330
3A6
100
AcDbXrecord
280
     1
102
RTVSPropertyOp0
 70
     1
102
RTVSPropertyOp1
 70
     1
102
RTVSPropertyOp2
 70
     1
102
RTVSPropertyOp3
 70
     1
102
RTVSPropertyOp4
 70
     1
102
RTVSPropertyOp5
 70
     1
102
RTVSPropertyOp6
 70
     1
102
RTVSPropertyOp7
 70
     1
102
RTVSPropertyOp8
 70
     1
102
RTVSPropertyOp9
 70
     1
102
RTVSPropertyOp10
 70
     1
102
RTVSPropertyOp11
 70
     1
102
RTVSPropertyOp12
 70
     1
102
RTVSPropertyOp13
 70
     1
102
RTVSPropertyOp14
 70
     1
102
RTVSPropertyOp15
 70
     1
102
RTVSPropertyOp16
 70
     1
102
RTVSPropertyOp17
 70
     1
102
RTVSPropertyOp18
 70
     1
102
RTVSPropertyOp19
 70
     1
102
RTVSPropertyOp20
 70
     1
102
RTVSPropertyOp21
 70
     1
102
RTVSPropertyOp22
 70
     1
102
RTVSPropertyOp23
 70
     1
102
RTVSPropertyOp24
 70
     1
102
RTVSPropertyOp25
 70
     1
102
RTVSPropertyOp26
 70
     1
102
RTVSPropertyOp27
 70
     1
102
RTVSPropertyOp28
 70
     1
102
RTVSPropertyOp29
 70
     1
102
RTVSPropertyOp30
 70
     1
102
RTVSPropertyOp31
 70
     1
102
RTVSPropertyOp32
 70
     1
  0
XRECORD
  5
3AB
102
{ACAD_REACTORS
330
3AA
102
}
330
3AA
100
AcDbXrecord
280
     1
102
RTVSPropertyOp0
 70
     1
102
RTVSPropertyOp1
 70
     1
102
RTVSPropertyOp2
 70
     1
102
RTVSPropertyOp3
 70
     1
102
RTVSPropertyOp4
 70
     1
102
RTVSPropertyOp5
 70
     1
102
RTVSPropertyOp6
 70
     1
102
RTVSPropertyOp7
 70
     1
102
RTVSPropertyOp8
 70
     1
102
RTVSPropertyOp9
 70
     1
102
RTVSPropertyOp10
 70
     1
102
RTVSPropertyOp11
 70
     1
102
RTVSPropertyOp12
 70
     1
102
RTVSPropertyOp13
 70
     1
102
RTVSPropertyOp14
 70
     1
102
RTVSPropertyOp15
 70
     1
102
RTVSPropertyOp16
 70
     1
102
RTVSPropertyOp17
 70
     1
102
RTVSPropertyOp18
 70
     1
102
RTVSPropertyOp19
 70
     1
102
RTVSPropertyOp20
 70
     1
102
RTVSPropertyOp21
 70
     1
102
RTVSPropertyOp22
 70
     1
102
RTVSPropertyOp23
 70
     1
102
RTVSPropertyOp24
 70
     1
102
RTVSPropertyOp25
 70
     1
102
RTVSPropertyOp26
 70
     1
102
RTVSPropertyOp27
 70
     1
102
RTVSPropertyOp28
 70
     1
102
RTVSPropertyOp29
 70
     1
102
RTVSPropertyOp30
 70
     1
102
RTVSPropertyOp31
 70
     1
102
RTVSPropertyOp32
 70
     1
  0
XRECORD
  5
3A9
102
{ACAD_REACTORS
330
3A8
102
}
330
3A8
100
AcDbXrecord
280
     1
102
RTVSPropertyOp0
 70
     1
102
RTVSPropertyOp1
 70
     1
102
RTVSPropertyOp2
 70
     1
102
RTVSPropertyOp3
 70
     1
102
RTVSPropertyOp4
 70
     1
102
RTVSPropertyOp5
 70
     1
102
RTVSPropertyOp6
 70
     1
102
RTVSPropertyOp7
 70
     1
102
RTVSPropertyOp8
 70
     1
102
RTVSPropertyOp9
 70
     1
102
RTVSPropertyOp10
 70
     1
102
RTVSPropertyOp11
 70
     1
102
RTVSPropertyOp12
 70
     1
102
RTVSPropertyOp13
 70
     1
102
RTVSPropertyOp14
 70
     1
102
RTVSPropertyOp15
 70
     1
102
RTVSPropertyOp16
 70
     1
102
RTVSPropertyOp17
 70
     1
102
RTVSPropertyOp18
 70
     1
102
RTVSPropertyOp19
 70
     1
102
RTVSPropertyOp20
 70
     1
102
RTVSPropertyOp21
 70
     1
102
RTVSPropertyOp22
 70
     1
102
RTVSPropertyOp23
 70
     1
102
RTVSPropertyOp24
 70
     1
102
RTVSPropertyOp25
 70
     1
102
RTVSPropertyOp26
 70
     1
102
RTVSPropertyOp27
 70
     1
102
RTVSPropertyOp28
 70
     1
102
RTVSPropertyOp29
 70
     1
102
RTVSPropertyOp30
 70
     1
102
RTVSPropertyOp31
 70
     1
102
RTVSPropertyOp32
 70
     1
  0
XRECORD
  5
3AD
102
{ACAD_REACTORS
330
3AC
102
}
330
3AC
100
AcDbXrecord
280
     1
102
RTVSPropertyOp0
 70
     1
102
RTVSPropertyOp1
 70
     1
102
RTVSPropertyOp2
 70
     1
102
RTVSPropertyOp3
 70
     1
102
RTVSPropertyOp4
 70
     1
102
RTVSPropertyOp5
 70
     1
102
RTVSPropertyOp6
 70
     1
102
RTVSPropertyOp7
 70
     1
102
RTVSPropertyOp8
 70
     1
102
RTVSPropertyOp9
 70
     1
102
RTVSPropertyOp10
 70
     1
102
RTVSPropertyOp11
 70
     1
102
RTVSPropertyOp12
 70
     1
102
RTVSPropertyOp13
 70
     1
102
RTVSPropertyOp14
 70
     1
102
RTVSPropertyOp15
 70
     1
102
RTVSPropertyOp16
 70
     1
102
RTVSPropertyOp17
 70
     1
102
RTVSPropertyOp18
 70
     1
102
RTVSPropertyOp19
 70
     1
102
RTVSPropertyOp20
 70
     1
102
RTVSPropertyOp21
 70
     1
102
RTVSPropertyOp22
 70
     1
102
RTVSPropertyOp23
 70
     1
102
RTVSPropertyOp24
 70
     1
102
RTVSPropertyOp25
 70
     1
102
RTVSPropertyOp26
 70
     1
102
RTVSPropertyOp27
 70
     1
102
RTVSPropertyOp28
 70
     1
102
RTVSPropertyOp29
 70
     1
102
RTVSPropertyOp30
 70
     1
102
RTVSPropertyOp31
 70
     1
102
RTVSPropertyOp32
 70
     1
  0
XRECORD
  5
3B5
102
{ACAD_REACTORS
330
3B4
102
}
330
3B4
100
AcDbXrecord
280
     1
102
RTVSPropertyOp0
 70
     1
102
RTVSPropertyOp1
 70
     1
102
RTVSPropertyOp2
 70
     1
102
RTVSPropertyOp3
 70
     1
102
RTVSPropertyOp4
 70
     1
102
RTVSPropertyOp5
 70
     1
102
RTVSPropertyOp6
 70
     1
102
RTVSPropertyOp7
 70
     1
102
RTVSPropertyOp8
 70
     1
102
RTVSPropertyOp9
 70
     1
102
RTVSPropertyOp10
 70
     1
102
RTVSPropertyOp11
 70
     1
102
RTVSPropertyOp12
 70
     1
102
RTVSPropertyOp13
 70
     1
102
RTVSPropertyOp14
 70
     1
102
RTVSPropertyOp15
 70
     1
102
RTVSPropertyOp16
 70
     1
102
RTVSPropertyOp17
 70
     1
102
RTVSPropertyOp18
 70
     1
102
RTVSPropertyOp19
 70
     1
102
RTVSPropertyOp20
 70
     1
102
RTVSPropertyOp21
 70
     1
102
RTVSPropertyOp22
 70
     1
102
RTVSPropertyOp23
 70
     1
102
RTVSPropertyOp24
 70
     1
102
RTVSPropertyOp25
 70
     1
102
RTVSPropertyOp26
 70
     1
102
RTVSPropertyOp27
 70
     1
102
RTVSPropertyOp28
 70
     1
102
RTVSPropertyOp29
 70
     1
102
RTVSPropertyOp30
 70
     1
102
RTVSPropertyOp31
 70
     1
102
RTVSPropertyOp32
 70
     1
  0
XRECORD
  5
3BD
102
{ACAD_REACTORS
330
3BC
102
}
330
3BC
100
AcDbXrecord
280
     1
102
RTVSPropertyOp0
 70
     1
102
RTVSPropertyOp1
 70
     1
102
RTVSPropertyOp2
 70
     1
102
RTVSPropertyOp3
 70
     1
102
RTVSPropertyOp4
 70
     1
102
RTVSPropertyOp5
 70
     1
102
RTVSPropertyOp6
 70
     1
102
RTVSPropertyOp7
 70
     1
102
RTVSPropertyOp8
 70
     1
102
RTVSPropertyOp9
 70
     1
102
RTVSPropertyOp10
 70
     1
102
RTVSPropertyOp11
 70
     1
102
RTVSPropertyOp12
 70
     1
102
RTVSPropertyOp13
 70
     1
102
RTVSPropertyOp14
 70
     1
102
RTVSPropertyOp15
 70
     1
102
RTVSPropertyOp16
 70
     1
102
RTVSPropertyOp17
 70
     1
102
RTVSPropertyOp18
 70
     1
102
RTVSPropertyOp19
 70
     1
102
RTVSPropertyOp20
 70
     1
102
RTVSPropertyOp21
 70
     1
102
RTVSPropertyOp22
 70
     1
102
RTVSPropertyOp23
 70
     1
102
RTVSPropertyOp24
 70
     1
102
RTVSPropertyOp25
 70
     1
102
RTVSPropertyOp26
 70
     1
102
RTVSPropertyOp27
 70
     1
102
RTVSPropertyOp28
 70
     1
102
RTVSPropertyOp29
 70
     1
102
RTVSPropertyOp30
 70
     1
102
RTVSPropertyOp31
 70
     1
102
RTVSPropertyOp32
 70
     1
  0
XRECORD
  5
3B1
102
{ACAD_REACTORS
330
3B0
102
}
330
3B0
100
AcDbXrecord
280
     1
102
RTVSPropertyOp0
 70
     1
102
RTVSPropertyOp1
 70
     1
102
RTVSPropertyOp2
 70
     1
102
RTVSPropertyOp3
 70
     1
102
RTVSPropertyOp4
 70
     1
102
RTVSPropertyOp5
 70
     1
102
RTVSPropertyOp6
 70
     1
102
RTVSPropertyOp7
 70
     1
102
RTVSPropertyOp8
 70
     1
102
RTVSPropertyOp9
 70
     1
102
RTVSPropertyOp10
 70
     1
102
RTVSPropertyOp11
 70
     1
102
RTVSPropertyOp12
 70
     1
102
RTVSPropertyOp13
 70
     1
102
RTVSPropertyOp14
 70
     1
102
RTVSPropertyOp15
 70
     1
102
RTVSPropertyOp16
 70
     1
102
RTVSPropertyOp17
 70
     1
102
RTVSPropertyOp18
 70
     1
102
RTVSPropertyOp19
 70
     1
102
RTVSPropertyOp20
 70
     1
102
RTVSPropertyOp21
 70
     1
102
RTVSPropertyOp22
 70
     1
102
RTVSPropertyOp23
 70
     1
102
RTVSPropertyOp24
 70
     1
102
RTVSPropertyOp25
 70
     1
102
RTVSPropertyOp26
 70
     1
102
RTVSPropertyOp27
 70
     1
102
RTVSPropertyOp28
 70
     1
102
RTVSPropertyOp29
 70
     1
102
RTVSPropertyOp30
 70
     1
102
RTVSPropertyOp31
 70
     1
102
RTVSPropertyOp32
 70
     1
  0
XRECORD
  5
3B3
102
{ACAD_REACTORS
330
3B2
102
}
330
3B2
100
AcDbXrecord
280
     1
102
RTVSPropertyOp0
 70
     1
102
RTVSPropertyOp1
 70
     1
102
RTVSPropertyOp2
 70
     1
102
RTVSPropertyOp3
 70
     1
102
RTVSPropertyOp4
 70
     1
102
RTVSPropertyOp5
 70
     1
102
RTVSPropertyOp6
 70
     1
102
RTVSPropertyOp7
 70
     1
102
RTVSPropertyOp8
 70
     1
102
RTVSPropertyOp9
 70
     1
102
RTVSPropertyOp10
 70
     1
102
RTVSPropertyOp11
 70
     1
102
RTVSPropertyOp12
 70
     1
102
RTVSPropertyOp13
 70
     1
102
RTVSPropertyOp14
 70
     1
102
RTVSPropertyOp15
 70
     1
102
RTVSPropertyOp16
 70
     1
102
RTVSPropertyOp17
 70
     1
102
RTVSPropertyOp18
 70
     1
102
RTVSPropertyOp19
 70
     1
102
RTVSPropertyOp20
 70
     1
102
RTVSPropertyOp21
 70
     1
102
RTVSPropertyOp22
 70
     1
102
RTVSPropertyOp23
 70
     1
102
RTVSPropertyOp24
 70
     1
102
RTVSPropertyOp25
 70
     1
102
RTVSPropertyOp26
 70
     1
102
RTVSPropertyOp27
 70
     1
102
RTVSPropertyOp28
 70
     1
102
RTVSPropertyOp29
 70
     1
102
RTVSPropertyOp30
 70
     1
102
RTVSPropertyOp31
 70
     1
102
RTVSPropertyOp32
 70
     1
  0
XRECORD
  5
3BB
102
{ACAD_REACTORS
330
3BA
102
}
330
3BA
100
AcDbXrecord
280
     1
102
RTVSPropertyOp0
 70
     1
102
RTVSPropertyOp1
 70
     1
102
RTVSPropertyOp2
 70
     1
102
RTVSPropertyOp3
 70
     1
102
RTVSPropertyOp4
 70
     1
102
RTVSPropertyOp5
 70
     1
102
RTVSPropertyOp6
 70
     1
102
RTVSPropertyOp7
 70
     1
102
RTVSPropertyOp8
 70
     1
102
RTVSPropertyOp9
 70
     1
102
RTVSPropertyOp10
 70
     1
102
RTVSPropertyOp11
 70
     1
102
RTVSPropertyOp12
 70
     1
102
RTVSPropertyOp13
 70
     1
102
RTVSPropertyOp14
 70
     1
102
RTVSPropertyOp15
 70
     1
102
RTVSPropertyOp16
 70
     1
102
RTVSPropertyOp17
 70
     1
102
RTVSPropertyOp18
 70
     1
102
RTVSPropertyOp19
 70
     1
102
RTVSPropertyOp20
 70
     1
102
RTVSPropertyOp21
 70
     1
102
RTVSPropertyOp22
 70
     1
102
RTVSPropertyOp23
 70
     1
102
RTVSPropertyOp24
 70
     1
102
RTVSPropertyOp25
 70
     1
102
RTVSPropertyOp26
 70
     1
102
RTVSPropertyOp27
 70
     1
102
RTVSPropertyOp28
 70
     1
102
RTVSPropertyOp29
 70
     1
102
RTVSPropertyOp30
 70
     1
102
RTVSPropertyOp31
 70
     1
102
RTVSPropertyOp32
 70
     1
  0
XRECORD
  5
39F
102
{ACAD_REACTORS
330
39E
102
}
330
39E
100
AcDbXrecord
280
     1
102
RTVSPropertyOp0
 70
     1
102
RTVSPropertyOp1
 70
     1
102
RTVSPropertyOp2
 70
     1
102
RTVSPropertyOp3
 70
     1
102
RTVSPropertyOp4
 70
     1
102
RTVSPropertyOp5
 70
     1
102
RTVSPropertyOp6
 70
     1
102
RTVSPropertyOp7
 70
     1
102
RTVSPropertyOp8
 70
     1
102
RTVSPropertyOp9
 70
     1
102
RTVSPropertyOp10
 70
     1
102
RTVSPropertyOp11
 70
     1
102
RTVSPropertyOp12
 70
     1
102
RTVSPropertyOp13
 70
     1
102
RTVSPropertyOp14
 70
     1
102
RTVSPropertyOp15
 70
     1
102
RTVSPropertyOp16
 70
     1
102
RTVSPropertyOp17
 70
     1
102
RTVSPropertyOp18
 70
     1
102
RTVSPropertyOp19
 70
     1
102
RTVSPropertyOp20
 70
     1
102
RTVSPropertyOp21
 70
     1
102
RTVSPropertyOp22
 70
     1
102
RTVSPropertyOp23
 70
     1
102
RTVSPropertyOp24
 70
     1
102
RTVSPropertyOp25
 70
     1
102
RTVSPropertyOp26
 70
     1
102
RTVSPropertyOp27
 70
     1
102
RTVSPropertyOp28
 70
     1
102
RTVSPropertyOp29
 70
     1
102
RTVSPropertyOp30
 70
     1
102
RTVSPropertyOp31
 70
     1
102
RTVSPropertyOp32
 70
     1
  0
XRECORD
  5
3A1
102
{ACAD_REACTORS
330
3A0
102
}
330
3A0
100
AcDbXrecord
280
     1
102
RTVSPropertyOp0
 70
     1
102
RTVSPropertyOp1
 70
     1
102
RTVSPropertyOp2
 70
     1
102
RTVSPropertyOp3
 70
     1
102
RTVSPropertyOp4
 70
     1
102
RTVSPropertyOp5
 70
     1
102
RTVSPropertyOp6
 70
     1
102
RTVSPropertyOp7
 70
     1
102
RTVSPropertyOp8
 70
     1
102
RTVSPropertyOp9
 70
     1
102
RTVSPropertyOp10
 70
     1
102
RTVSPropertyOp11
 70
     1
102
RTVSPropertyOp12
 70
     1
102
RTVSPropertyOp13
 70
     1
102
RTVSPropertyOp14
 70
     1
102
RTVSPropertyOp15
 70
     1
102
RTVSPropertyOp16
 70
     1
102
RTVSPropertyOp17
 70
     1
102
RTVSPropertyOp18
 70
     1
102
RTVSPropertyOp19
 70
     1
102
RTVSPropertyOp20
 70
     1
102
RTVSPropertyOp21
 70
     1
102
RTVSPropertyOp22
 70
     1
102
RTVSPropertyOp23
 70
     1
102
RTVSPropertyOp24
 70
     1
102
RTVSPropertyOp25
 70
     1
102
RTVSPropertyOp26
 70
     1
102
RTVSPropertyOp27
 70
     1
102
RTVSPropertyOp28
 70
     1
102
RTVSPropertyOp29
 70
     1
102
RTVSPropertyOp30
 70
     1
102
RTVSPropertyOp31
 70
     1
102
RTVSPropertyOp32
 70
     1
  0
XRECORD
  5
3A3
102
{ACAD_REACTORS
330
3A2
102
}
330
3A2
100
AcDbXrecord
280
     1
102
RTVSPropertyOp0
 70
     1
102
RTVSPropertyOp1
 70
     1
102
RTVSPropertyOp2
 70
     1
102
RTVSPropertyOp3
 70
     1
102
RTVSPropertyOp4
 70
     1
102
RTVSPropertyOp5
 70
     1
102
RTVSPropertyOp6
 70
     1
102
RTVSPropertyOp7
 70
     1
102
RTVSPropertyOp8
 70
     1
102
RTVSPropertyOp9
 70
     1
102
RTVSPropertyOp10
 70
     1
102
RTVSPropertyOp11
 70
     1
102
RTVSPropertyOp12
 70
     1
102
RTVSPropertyOp13
 70
     1
102
RTVSPropertyOp14
 70
     1
102
RTVSPropertyOp15
 70
     1
102
RTVSPropertyOp16
 70
     1
102
RTVSPropertyOp17
 70
     1
102
RTVSPropertyOp18
 70
     1
102
RTVSPropertyOp19
 70
     1
102
RTVSPropertyOp20
 70
     1
102
RTVSPropertyOp21
 70
     1
102
RTVSPropertyOp22
 70
     1
102
RTVSPropertyOp23
 70
     1
102
RTVSPropertyOp24
 70
     1
102
RTVSPropertyOp25
 70
     1
102
RTVSPropertyOp26
 70
     1
102
RTVSPropertyOp27
 70
     1
102
RTVSPropertyOp28
 70
     1
102
RTVSPropertyOp29
 70
     1
102
RTVSPropertyOp30
 70
     1
102
RTVSPropertyOp31
 70
     1
102
RTVSPropertyOp32
 70
     1
  0
XRECORD
  5
3A5
102
{ACAD_REACTORS
330
3A4
102
}
330
3A4
100
AcDbXrecord
280
     1
102
RTVSPropertyOp0
 70
     1
102
RTVSPropertyOp1
 70
     1
102
RTVSPropertyOp2
 70
     1
102
RTVSPropertyOp3
 70
     1
102
RTVSPropertyOp4
 70
     1
102
RTVSPropertyOp5
 70
     1
102
RTVSPropertyOp6
 70
     1
102
RTVSPropertyOp7
 70
     1
102
RTVSPropertyOp8
 70
     1
102
RTVSPropertyOp9
 70
     1
102
RTVSPropertyOp10
 70
     1
102
RTVSPropertyOp11
 70
     1
102
RTVSPropertyOp12
 70
     1
102
RTVSPropertyOp13
 70
     1
102
RTVSPropertyOp14
 70
     1
102
RTVSPropertyOp15
 70
     1
102
RTVSPropertyOp16
 70
     1
102
RTVSPropertyOp17
 70
     1
102
RTVSPropertyOp18
 70
     1
102
RTVSPropertyOp19
 70
     1
102
RTVSPropertyOp20
 70
     1
102
RTVSPropertyOp21
 70
     1
102
RTVSPropertyOp22
 70
     1
102
RTVSPropertyOp23
 70
     1
102
RTVSPropertyOp24
 70
     1
102
RTVSPropertyOp25
 70
     1
102
RTVSPropertyOp26
 70
     1
102
RTVSPropertyOp27
 70
     1
102
RTVSPropertyOp28
 70
     1
102
RTVSPropertyOp29
 70
     1
102
RTVSPropertyOp30
 70
     1
102
RTVSPropertyOp31
 70
     1
102
RTVSPropertyOp32
 70
     1
  0
XRECORD
  5
3B9
102
{ACAD_REACTORS
330
3B8
102
}
330
3B8
100
AcDbXrecord
280
     1
102
RTVSPropertyOp0
 70
     1
102
RTVSPropertyOp1
 70
     1
102
RTVSPropertyOp2
 70
     1
102
RTVSPropertyOp3
 70
     1
102
RTVSPropertyOp4
 70
     1
102
RTVSPropertyOp5
 70
     1
102
RTVSPropertyOp6
 70
     1
102
RTVSPropertyOp7
 70
     1
102
RTVSPropertyOp8
 70
     1
102
RTVSPropertyOp9
 70
     1
102
RTVSPropertyOp10
 70
     1
102
RTVSPropertyOp11
 70
     1
102
RTVSPropertyOp12
 70
     1
102
RTVSPropertyOp13
 70
     1
102
RTVSPropertyOp14
 70
     1
102
RTVSPropertyOp15
 70
     1
102
RTVSPropertyOp16
 70
     1
102
RTVSPropertyOp17
 70
     1
102
RTVSPropertyOp18
 70
     1
102
RTVSPropertyOp19
 70
     1
102
RTVSPropertyOp20
 70
     1
102
RTVSPropertyOp21
 70
     1
102
RTVSPropertyOp22
 70
     1
102
RTVSPropertyOp23
 70
     1
102
RTVSPropertyOp24
 70
     1
102
RTVSPropertyOp25
 70
     1
102
RTVSPropertyOp26
 70
     1
102
RTVSPropertyOp27
 70
     1
102
RTVSPropertyOp28
 70
     1
102
RTVSPropertyOp29
 70
     1
102
RTVSPropertyOp30
 70
     1
102
RTVSPropertyOp31
 70
     1
102
RTVSPropertyOp32
 70
     1
  0
XRECORD
  5
3AF
102
{ACAD_REACTORS
330
3AE
102
}
330
3AE
100
AcDbXrecord
280
     1
102
RTVSPropertyOp0
 70
     1
102
RTVSPropertyOp1
 70
     1
102
RTVSPropertyOp2
 70
     1
102
RTVSPropertyOp3
 70
     1
102
RTVSPropertyOp4
 70
     1
102
RTVSPropertyOp5
 70
     1
102
RTVSPropertyOp6
 70
     1
102
RTVSPropertyOp7
 70
     1
102
RTVSPropertyOp8
 70
     1
102
RTVSPropertyOp9
 70
     1
102
RTVSPropertyOp10
 70
     1
102
RTVSPropertyOp11
 70
     1
102
RTVSPropertyOp12
 70
     1
102
RTVSPropertyOp13
 70
     1
102
RTVSPropertyOp14
 70
     1
102
RTVSPropertyOp15
 70
     1
102
RTVSPropertyOp16
 70
     1
102
RTVSPropertyOp17
 70
     1
102
RTVSPropertyOp18
 70
     1
102
RTVSPropertyOp19
 70
     1
102
RTVSPropertyOp20
 70
     1
102
RTVSPropertyOp21
 70
     1
102
RTVSPropertyOp22
 70
     1
102
RTVSPropertyOp23
 70
     1
102
RTVSPropertyOp24
 70
     1
102
RTVSPropertyOp25
 70
     1
102
RTVSPropertyOp26
 70
     1
102
RTVSPropertyOp27
 70
     1
102
RTVSPropertyOp28
 70
     1
102
RTVSPropertyOp29
 70
     1
102
RTVSPropertyOp30
 70
     1
102
RTVSPropertyOp31
 70
     1
102
RTVSPropertyOp32
 70
     1
  0
XRECORD
  5
3B7
102
{ACAD_REACTORS
330
3B6
102
}
330
3B6
100
AcDbXrecord
280
     1
102
RTVSPropertyOp0
 70
     1
102
RTVSPropertyOp1
 70
     1
102
RTVSPropertyOp2
 70
     1
102
RTVSPropertyOp3
 70
     1
102
RTVSPropertyOp4
 70
     1
102
RTVSPropertyOp5
 70
     1
102
RTVSPropertyOp6
 70
     1
102
RTVSPropertyOp7
 70
     1
102
RTVSPropertyOp8
 70
     1
102
RTVSPropertyOp9
 70
     1
102
RTVSPropertyOp10
 70
     1
102
RTVSPropertyOp11
 70
     1
102
RTVSPropertyOp12
 70
     1
102
RTVSPropertyOp13
 70
     1
102
RTVSPropertyOp14
 70
     1
102
RTVSPropertyOp15
 70
     1
102
RTVSPropertyOp16
 70
     1
102
RTVSPropertyOp17
 70
     1
102
RTVSPropertyOp18
 70
     1
102
RTVSPropertyOp19
 70
     1
102
RTVSPropertyOp20
 70
     1
102
RTVSPropertyOp21
 70
     1
102
RTVSPropertyOp22
 70
     1
102
RTVSPropertyOp23
 70
     1
102
RTVSPropertyOp24
 70
     1
102
RTVSPropertyOp25
 70
     1
102
RTVSPropertyOp26
 70
     1
102
RTVSPropertyOp27
 70
     1
102
RTVSPropertyOp28
 70
     1
102
RTVSPropertyOp29
 70
     1
102
RTVSPropertyOp30
 70
     1
102
RTVSPropertyOp31
 70
     1
102
RTVSPropertyOp32
 70
     1
  0
ENDSEC
  0
EOF
