  0
SECTION
  2
HEADER
  9
$ACADVER
  1
AC1015
  9
$ACADMAINTVER
 70
     6
  9
$DWGCODEPAGE
  3
ANSI_1252
  9
$INSBASE
 10
0.0
 20
0.0
 30
0.0
  9
$EXTMIN
 10
1.000000000000000E+20
 20
1.000000000000000E+20
 30
1.000000000000000E+20
  9
$EXTMAX
 10
-1.000000000000000E+20
 20
-1.000000000000000E+20
 30
-1.000000000000000E+20
  9
$LIMMIN
 10
0.0
 20
0.0
  9
$LIMMAX
 10
12.0
 20
9.0
  9
$ORTHOMODE
 70
     0
  9
$REGENMODE
 70
     1
  9
$FILLMODE
 70
     1
  9
$QTEXTMODE
 70
     0
  9
$MIRRTEXT
 70
     1
  9
$LTSCALE
 40
1.0
  9
$ATTMODE
 70
     1
  9
$TEXTSIZE
 40
0.2
  9
$TRACEWID
 40
0.05
  9
$TEXTSTYLE
  7
Standard
  9
$CLAYER
  8
0
  9
$CELTYPE
  6
ByLayer
  9
$CECOLOR
 62
   256
  9
$CELTSCALE
 40
1.0
  9
$DISPSILH
 70
     0
  9
$DIMSCALE
 40
1.0
  9
$DIMASZ
 40
0.18
  9
$DIMEXO
 40
0.0625
  9
$DIMDLI
 40
0.38
  9
$DIMRND
 40
0.0
  9
$DIMDLE
 40
0.0
  9
$DIMEXE
 40
0.18
  9
$DIMTP
 40
0.0
  9
$DIMTM
 40
0.0
  9
$DIMTXT
 40
0.18
  9
$DIMCEN
 40
0.09
  9
$DIMTSZ
 40
0.0
  9
$DIMTOL
 70
     0
  9
$DIMLIM
 70
     0
  9
$DIMTIH
 70
     1
  9
$DIMTOH
 70
     1
  9
$DIMSE1
 70
     0
  9
$DIMSE2
 70
     0
  9
$DIMTAD
 70
     0
  9
$DIMZIN
 70
     0
  9
$DIMBLK
  1

  9
$DIMASO
 70
     1
  9
$DIMSHO
 70
     1
  9
$DIMPOST
  1

  9
$DIMAPOST
  1

  9
$DIMALT
 70
     0
  9
$DIMALTD
 70
     2
  9
$DIMALTF
 40
25.4
  9
$DIMLFAC
 40
1.0
  9
$DIMTOFL
 70
     0
  9
$DIMTVP
 40
0.0
  9
$DIMTIX
 70
     0
  9
$DIMSOXD
 70
     0
  9
$DIMSAH
 70
     0
  9
$DIMBLK1
  1

  9
$DIMBLK2
  1

  9
$DIMSTYLE
  2
Standard
  9
$DIMCLRD
 70
     0
  9
$DIMCLRE
 70
     0
  9
$DIMCLRT
 70
     0
  9
$DIMTFAC
 40
1.0
  9
$DIMGAP
 40
0.09
  9
$DIMJUST
 70
     0
  9
$DIMSD1
 70
     0
  9
$DIMSD2
 70
     0
  9
$DIMTOLJ
 70
     1
  9
$DIMTZIN
 70
     0
  9
$DIMALTZ
 70
     0
  9
$DIMALTTZ
 70
     0
  9
$DIMUPT
 70
     0
  9
$DIMDEC
 70
     4
  9
$DIMTDEC
 70
     4
  9
$DIMALTU
 70
     2
  9
$DIMALTTD
 70
     2
  9
$DIMTXSTY
  7
Standard
  9
$DIMAUNIT
 70
     0
  9
$DIMADEC
 70
     0
  9
$DIMALTRND
 40
0.0
  9
$DIMAZIN
 70
     0
  9
$DIMDSEP
 70
    46
  9
$DIMATFIT
 70
     3
  9
$DIMFRAC
 70
     0
  9
$DIMLDRBLK
  1

  9
$DIMLUNIT
 70
     2
  9
$DIMLWD
 70
    -2
  9
$DIMLWE
 70
    -2
  9
$DIMTMOVE
 70
     0
  9
$LUNITS
 70
     2
  9
$LUPREC
 70
     4
  9
$SKETCHINC
 40
0.1
  9
$FILLETRAD
 40
0.5
  9
$AUNITS
 70
     0
  9
$AUPREC
 70
     0
  9
$MENU
  1
.
  9
$ELEVATION
 40
0.0
  9
$PELEVATION
 40
0.0
  9
$THICKNESS
 40
0.0
  9
$LIMCHECK
 70
     0
  9
$CHAMFERA
 40
0.5
  9
$CHAMFERB
 40
0.5
  9
$CHAMFERC
 40
1.0
  9
$CHAMFERD
 40
0.0
  9
$SKPOLY
 70
     0
  9
$TDCREATE
 40
2458927.49512875
  9
$TDUCREATE
 40
2458926.953462083
  9
$TDUPDATE
 40
2458927.495128877
  9
$TDUUPDATE
 40
2458926.95346221
  9
$TDINDWG
 40
0.0000000116
  9
$TDUSRTIMER
 40
0.0000000116
  9
$USRTIMER
 70
     1
  9
$ANGBASE
 50
0.0
  9
$ANGDIR
 70
     0
  9
$PDMODE
 70
     0
  9
$PDSIZE
 40
0.0
  9
$PLINEWID
 40
0.0
  9
$SPLFRAME
 70
     0
  9
$SPLINETYPE
 70
     6
  9
$SPLINESEGS
 70
     8
  9
$HANDSEED
  5
339
  9
$SURFTAB1
 70
     6
  9
$SURFTAB2
 70
     6
  9
$SURFTYPE
 70
     6
  9
$SURFU
 70
     6
  9
$SURFV
 70
     6
  9
$UCSBASE
  2

  9
$UCSNAME
  2

  9
$UCSORG
 10
0.0
 20
0.0
 30
0.0
  9
$UCSXDIR
 10
1.0
 20
0.0
 30
0.0
  9
$UCSYDIR
 10
0.0
 20
1.0
 30
0.0
  9
$UCSORTHOREF
  2

  9
$UCSORTHOVIEW
 70
     0
  9
$UCSORGTOP
 10
0.0
 20
0.0
 30
0.0
  9
$UCSORGBOTTOM
 10
0.0
 20
0.0
 30
0.0
  9
$UCSORGLEFT
 10
0.0
 20
0.0
 30
0.0
  9
$UCSORGRIGHT
 10
0.0
 20
0.0
 30
0.0
  9
$UCSORGFRONT
 10
0.0
 20
0.0
 30
0.0
  9
$UCSORGBACK
 10
0.0
 20
0.0
 30
0.0
  9
$PUCSBASE
  2

  9
$PUCSNAME
  2

  9
$PUCSORG
 10
0.0
 20
0.0
 30
0.0
  9
$PUCSXDIR
 10
1.0
 20
0.0
 30
0.0
  9
$PUCSYDIR
 10
0.0
 20
1.0
 30
0.0
  9
$PUCSORTHOREF
  2

  9
$PUCSORTHOVIEW
 70
     0
  9
$PUCSORGTOP
 10
0.0
 20
0.0
 30
0.0
  9
$PUCSORGBOTTOM
 10
0.0
 20
0.0
 30
0.0
  9
$PUCSORGLEFT
 10
0.0
 20
0.0
 30
0.0
  9
$PUCSORGRIGHT
 10
0.0
 20
0.0
 30
0.0
  9
$PUCSORGFRONT
 10
0.0
 20
0.0
 30
0.0
  9
$PUCSORGBACK
 10
0.0
 20
0.0
 30
0.0
  9
$USERI1
 70
     0
  9
$USERI2
 70
     0
  9
$USERI3
 70
     0
  9
$USERI4
 70
     0
  9
$USERI5
 70
     0
  9
$USERR1
 40
0.0
  9
$USERR2
 40
0.0
  9
$USERR3
 40
0.0
  9
$USERR4
 40
0.0
  9
$USERR5
 40
0.0
  9
$WORLDVIEW
 70
     1
  9
$SHADEDGE
 70
     3
  9
$SHADEDIF
 70
    70
  9
$TILEMODE
 70
     1
  9
$MAXACTVP
 70
    64
  9
$PINSBASE
 10
0.0
 20
0.0
 30
0.0
  9
$PLIMCHECK
 70
     0
  9
$PEXTMIN
 10
1.000000000000000E+20
 20
1.000000000000000E+20
 30
1.000000000000000E+20
  9
$PEXTMAX
 10
-1.000000000000000E+20
 20
-1.000000000000000E+20
 30
-1.000000000000000E+20
  9
$PLIMMIN
 10
0.0
 20
0.0
  9
$PLIMMAX
 10
12.0
 20
9.0
  9
$UNITMODE
 70
     0
  9
$VISRETAIN
 70
     1
  9
$PLINEGEN
 70
     0
  9
$PSLTSCALE
 70
     1
  9
$TREEDEPTH
 70
  3020
  9
$CMLSTYLE
  2
Standard
  9
$CMLJUST
 70
     0
  9
$CMLSCALE
 40
1.0
  9
$PROXYGRAPHICS
 70
     1
  9
$MEASUREMENT
 70
     0
  9
$CELWEIGHT
370
    -1
  9
$ENDCAPS
280
     0
  9
$JOINSTYLE
280
     0
  9
$LWDISPLAY
290
     1
  9
$INSUNITS
 70
     4
  9
$HYPERLINKBASE
  1

  9
$STYLESHEET
  1

  9
$XEDIT
290
     1
  9
$CEPSNTYPE
380
     0
  9
$PSTYLEMODE
290
     1
  9
$FINGERPRINTGUID
  2
{A4A65D2A-0F4C-43B2-B438-C2C487AC902C}
  9
$VERSIONGUID
  2
{FAEB1C32-E019-11D5-929B-00C0DF256EC4}
  9
$EXTNAMES
290
     1
  9
$PSVPSCALE
 40
0.0
  9
$OLESTARTUP
290
     0
  0
ENDSEC
  0
SECTION
  2
CLASSES
  0
CLASS
  1
ACDBDICTIONARYWDFLT
  2
AcDbDictionaryWithDefault
  3
ObjectDBX Classes
 90
        0
280
     0
281
     0
  0
CLASS
  1
VISUALSTYLE
  2
AcDbVisualStyle
  3
ObjectDBX Classes
 90
     4095
280
     0
281
     0
  0
CLASS
  1
MATERIAL
  2
AcDbMaterial
  3
ObjectDBX Classes
 90
     1153
280
     0
281
     0
  0
CLASS
  1
SUN
  2
AcDbSun
  3
SCENEOE
 90
     1024
280
     0
281
     0
  0
CLASS
  1
DICTIONARYVAR
  2
AcDbDictionaryVar
  3
ObjectDBX Classes
 90
        0
280
     0
281
     0
  0
CLASS
  1
ACDBPLACEHOLDER
  2
AcDbPlaceHolder
  3
ObjectDBX Classes
 90
        0
280
     0
281
     0
  0
CLASS
  1
LAYOUT
  2
AcDbLayout
  3
ObjectDBX Classes
 90
        0
280
     0
281
     0
  0
ENDSEC
  0
SECTION
  2
TABLES
  0
TABLE
  2
VPORT
  5
8
330
0
100
AcDbSymbolTable
 70
     1
  0
VPORT
  5
29
330
8
100
AcDbSymbolTableRecord
100
AcDbViewportTableRecord
  2
*Active
 70
     0
 10
0.0
 20
0.0
 11
1.0
 21
1.0
 12
0.0
 22
0.0
 13
0.0
 23
0.0
 14
0.5
 24
0.5
 15
0.5
 25
0.5
 16
0.0
 26
0.0
 36
1.0
 17
594.4993281255732
 27
420.5005173373662
 37
0.0
 40
841.0010346747324
 41
1.413789766276573
 42
50.0
 43
0.0
 44
0.0
 50
0.0
 51
0.0
 71
     0
 72
   100
 73
     1
 74
     3
 75
     0
 76
     0
 77
     0
 78
     0
281
     0
 65
     1
110
0.0
120
0.0
130
0.0
111
1.0
121
0.0
131
0.0
112
0.0
122
1.0
132
0.0
 79
     0
146
0.0
  0
ENDTAB
  0
TABLE
  2
LTYPE
  5
5
330
0
100
AcDbSymbolTable
 70
     1
  0
LTYPE
  5
14
330
5
100
AcDbSymbolTableRecord
100
AcDbLinetypeTableRecord
  2
ByBlock
 70
     0
  3

 72
    65
 73
     0
 40
0.0
  0
LTYPE
  5
15
330
5
100
AcDbSymbolTableRecord
100
AcDbLinetypeTableRecord
  2
ByLayer
 70
     0
  3

 72
    65
 73
     0
 40
0.0
  0
LTYPE
  5
16
330
5
100
AcDbSymbolTableRecord
100
AcDbLinetypeTableRecord
  2
Continuous
 70
     0
  3
Solid line
 72
    65
 73
     0
 40
0.0
  0
ENDTAB
  0
TABLE
  2
LAYER
  5
2
330
0
100
AcDbSymbolTable
 70
     2
  0
LAYER
  5
10
330
2
100
AcDbSymbolTableRecord
100
AcDbLayerTableRecord
  2
0
 70
     0
 62
     7
  6
Continuous
370
    -3
390
F
  0
LAYER
  5
40
330
2
100
AcDbSymbolTableRecord
100
AcDbLayerTableRecord
  2
Layer 1
 70
     0
 62
     7
  6
Continuous
370
    -3
390
F
  0
ENDTAB
  0
TABLE
  2
STYLE
  5
3
330
0
100
AcDbSymbolTable
 70
     1
  0
STYLE
  5
11
330
3
100
AcDbSymbolTableRecord
100
AcDbTextStyleTableRecord
  2
Standard
 70
     0
 40
0.0
 41
1.0
 50
0.0
 71
     0
 42
0.2
  3
txt
  4

  0
ENDTAB
  0
TABLE
  2
VIEW
  5
6
330
0
100
AcDbSymbolTable
 70
     0
  0
ENDTAB
  0
TABLE
  2
UCS
  5
7
330
0
100
AcDbSymbolTable
 70
     0
  0
ENDTAB
  0
TABLE
  2
APPID
  5
9
330
0
100
AcDbSymbolTable
 70
     1
  0
APPID
  5
12
330
9
100
AcDbSymbolTableRecord
100
AcDbRegAppTableRecord
  2
ACAD
 70
     0
  0
ENDTAB
  0
TABLE
  2
DIMSTYLE
  5
A
330
0
100
AcDbSymbolTable
 70
     1
100
AcDbDimStyleTable
  0
DIMSTYLE
105
27
330
A
100
AcDbSymbolTableRecord
100
AcDbDimStyleTableRecord
  2
Standard
 70
     0
178
     0
340
11
  0
ENDTAB
  0
TABLE
  2
BLOCK_RECORD
  5
1
330
0
100
AcDbSymbolTable
 70
     9
  0
BLOCK_RECORD
  5
1F
330
1
100
AcDbSymbolTableRecord
100
AcDbBlockTableRecord
  2
*Model_Space
340
22
  0
BLOCK_RECORD
  5
1B
330
1
100
AcDbSymbolTableRecord
100
AcDbBlockTableRecord
  2
*Paper_Space
340
1E
  0
BLOCK_RECORD
  5
23
330
1
100
AcDbSymbolTableRecord
100
AcDbBlockTableRecord
  2
*Paper_Space0
340
26
  0
BLOCK_RECORD
  5
41
330
1
100
AcDbSymbolTableRecord
100
AcDbBlockTableRecord
  2
block 2
340
0
102
{BLKREFS
331
42
102
}
  0
BLOCK_RECORD
  5
83
330
1
100
AcDbSymbolTableRecord
100
AcDbBlockTableRecord
  2
block 3
340
0
102
{BLKREFS
331
84
102
}
  0
BLOCK_RECORD
  5
C2
330
1
100
AcDbSymbolTableRecord
100
AcDbBlockTableRecord
  2
block 4
340
0
102
{BLKREFS
331
C3
102
}
  0
BLOCK_RECORD
  5
EB
330
1
100
AcDbSymbolTableRecord
100
AcDbBlockTableRecord
  2
block 5
340
0
102
{BLKREFS
331
EC
102
}
  0
BLOCK_RECORD
  5
F7
330
1
100
AcDbSymbolTableRecord
100
AcDbBlockTableRecord
  2
block 6
340
0
102
{BLKREFS
331
F8
102
}
  0
BLOCK_RECORD
  5
1A8
330
1
100
AcDbSymbolTableRecord
100
AcDbBlockTableRecord
  2
block 7
340
0
102
{BLKREFS
331
1A9
102
}
  0
BLOCK_RECORD
  5
29C
330
1
100
AcDbSymbolTableRecord
100
AcDbBlockTableRecord
  2
block 8
340
0
102
{BLKREFS
331
29D
102
}
  0
BLOCK_RECORD
  5
2AE
330
1
100
AcDbSymbolTableRecord
100
AcDbBlockTableRecord
  2
block 9
340
0
102
{BLKREFS
331
2AF
102
}
  0
ENDTAB
  0
ENDSEC
  0
SECTION
  2
BLOCKS
  0
BLOCK
  5
20
330
1F
100
AcDbEntity
  8
0
100
AcDbBlockBegin
  2
*Model_Space
 70
     0
 10
0.0
 20
0.0
 30
0.0
  3
*Model_Space
  1

  0
ENDBLK
  5
21
330
1F
100
AcDbEntity
  8
0
100
AcDbBlockEnd
  0
BLOCK
  5
1C
330
1B
100
AcDbEntity
 67
     1
  8
0
100
AcDbBlockBegin
  2
*Paper_Space
 70
     0
 10
0.0
 20
0.0
 30
0.0
  3
*Paper_Space
  1

  0
ENDBLK
  5
1D
330
1B
100
AcDbEntity
 67
     1
  8
0
100
AcDbBlockEnd
  0
BLOCK
  5
24
330
23
100
AcDbEntity
  8
0
100
AcDbBlockBegin
  2
*Paper_Space0
 70
     0
 10
0.0
 20
0.0
 30
0.0
  3
*Paper_Space0
  1

  0
ENDBLK
  5
25
330
23
100
AcDbEntity
  8
0
100
AcDbBlockEnd
  0
BLOCK
  5
43
330
41
100
AcDbEntity
  8
0
100
AcDbBlockBegin
  2
block 2
 70
     0
 10
0.0
 20
0.0
 30
0.0
  3
block 2
  1

  0
SPLINE
  5
45
330
41
100
AcDbEntity
  8
Layer 1
 62
    40
370
    13
100
AcDbSpline
210
0.0
220
0.0
230
1.0
 70
    11
 71
     3
 72
    50
 73
    46
 74
     0
 42
0.0000000001
 43
0.0000000001
 12
1.0
 22
0.0
 32
0.0
 13
1.0
 23
0.0
 33
0.0
 40
0.0
 40
0.0
 40
0.0
 40
0.0
 40
1.0
 40
1.0
 40
1.0
 40
2.0
 40
2.0
 40
2.0
 40
3.0
 40
3.0
 40
3.0
 40
4.0
 40
4.0
 40
4.0
 40
5.0
 40
5.0
 40
5.0
 40
6.0
 40
6.0
 40
6.0
 40
7.0
 40
7.0
 40
7.0
 40
8.0
 40
8.0
 40
8.0
 40
9.0
 40
9.0
 40
9.0
 40
10.0
 40
10.0
 40
10.0
 40
11.0
 40
11.0
 40
11.0
 40
12.0
 40
12.0
 40
12.0
 40
13.0
 40
13.0
 40
13.0
 40
14.0
 40
14.0
 40
14.0
 40
15.0
 40
15.0
 40
15.0
 40
15.0
 10
98.9227444506571
 20
803.5149387175433
 30
0.0
 10
98.9227444506571
 20
806.6510229818603
 30
0.0
 10
97.83707422476817
 20
809.3239158949663
 30
0.0
 10
95.66865531448285
 20
811.5326012685281
 30
0.0
 10
93.4993472393908
 20
813.7403974772831
 30
0.0
 10
90.86767346613253
 20
814.8481062879615
 30
0.0
 10
87.78138243085935
 20
814.8481062879615
 30
0.0
 10
84.70474518488646
 20
814.8481062879615
 30
0.0
 10
82.0808198477792
 20
813.7403974772831
 30
0.0
 10
79.91233742572255
 20
811.5316485919456
 30
0.0
 10
77.74302935063501
 20
809.3201051886671
 30
0.0
 10
76.65926447789538
 20
806.6453069223992
 30
0.0
 10
76.65926447789538
 20
803.5082064697384
 30
0.0
 10
76.65926447789538
 20
800.3692641757125
 30
0.0
 10
77.74201316228536
 20
797.7011346454741
 30
0.0
 10
79.91233742572255
 20
795.5029922260302
 30
0.0
 10
82.07891449462734
 20
793.3038971299967
 30
0.0
 10
84.70188715515853
 20
792.206731273419
 30
0.0
 10
87.77661904798116
 20
792.206731273419
 30
0.0
 10
90.26151711677976
 20
792.206731273419
 30
0.0
 10
92.45680150650243
 20
792.8819249186445
 30
0.0
 10
94.35669264592777
 20
794.2265326378731
 30
0.0
 10
96.25366224385385
 20
795.5720295218911
 30
0.0
 10
97.54650786911682
 20
797.3817974572357
 30
0.0
 10
98.23510249817501
 20
799.6480244959823
 30
0.0
 10
98.23510249817501
 20
799.6480244959823
 30
0.0
 10
92.85578245649016
 20
799.6480244959823
 30
0.0
 10
92.85578245649016
 20
799.6480244959823
 30
0.0
 10
92.42898335048483
 20
798.8146230273886
 30
0.0
 10
91.77011223059898
 20
798.1452089533964
 30
0.0
 10
90.87338952558842
 20
797.646514521792
 30
0.0
 10
89.9766668205846
 20
797.1458512252751
 30
0.0
 10
88.98982091149406
 20
796.8984093626349
 30
0.0
 10
87.9099302568301
 20
796.8984093626349
 30
0.0
 10
86.16926312912425
 20
796.8984093626349
 30
0.0
 10
84.71433546241578
 20
797.5275569733519
 30
0.0
 10
83.54717963339785
 20
798.791568254254
 30
0.0
 10
82.87103331160108
 20
799.5300831358828
 30
0.0
 10
82.38675605218064
 20
800.3596738981703
 30
0.0
 10
82.09809504969044
 20
801.2765298348133
 30
0.0
 10
82.09809504969044
 20
801.2765298348133
 30
0.0
 10
98.73570228292385
 20
801.2765298348133
 30
0.0
 10
98.73570228292385
 20
801.2765298348133
 30
0.0
 10
98.8603758908215
 20
802.0082489568724
 30
0.0
 10
98.9227444506571
 20
802.7563541160437
 30
0.0
 10
98.9227444506571
 20
803.5149387175433
 30
0.0
  0
SPLINE
  5
46
330
41
100
AcDbEntity
  8
Layer 1
 62
    40
370
    13
100
AcDbSpline
210
0.0
220
0.0
230
1.0
 70
    11
 71
     3
 72
    20
 73
    16
 74
     0
 42
0.0000000001
 43
0.0000000001
 12
1.0
 22
0.0
 32
0.0
 13
1.0
 23
0.0
 33
0.0
 40
0.0
 40
0.0
 40
0.0
 40
0.0
 40
1.0
 40
1.0
 40
1.0
 40
2.0
 40
2.0
 40
2.0
 40
3.0
 40
3.0
 40
3.0
 40
4.0
 40
4.0
 40
4.0
 40
5.0
 40
5.0
 40
5.0
 40
5.0
 10
81.94941399207828
 20
805.340012989881
 30
0.0
 10
82.23616964142111
 20
806.4381315230274
 30
0.0
 10
82.7521392749223
 20
807.4077657419739
 30
0.0
 10
83.49446486286287
 20
808.2488521349511
 30
0.0
 10
84.64917238462579
 20
809.5205483402342
 30
0.0
 10
86.0791399250459
 20
810.155412010412
 30
0.0
 10
87.78811467866457
 20
810.155412010412
 30
0.0
 10
89.4942949143205
 20
810.155412010412
 30
0.0
 10
90.92616780789504
 20
809.5205483402342
 30
0.0
 10
92.0808753296493
 20
808.2488521349511
 30
0.0
 10
92.84905020868237
 20
807.4202140492395
 30
0.0
 10
93.35739842958223
 20
806.4515325068688
 30
0.0
 10
93.60769832195972
 20
805.340012989881
 30
0.0
 10
93.60769832195972
 20
805.340012989881
 30
0.0
 10
81.94941399207828
 20
805.340012989881
 30
0.0
 10
81.94941399207828
 20
805.340012989881
 30
0.0
  0
POLYLINE
  5
47
330
41
100
AcDbEntity
  8
Layer 1
 62
    40
370
    13
100
AcDb2dPolyline
 66
     1
 10
0.0
 20
0.0
 30
0.0
  0
VERTEX
  5
48
330
47
100
AcDbEntity
  8
Layer 1
 62
    40
370
    13
100
AcDbVertex
100
AcDb2dVertex
 10
120.5551975337298
 20
814.1594576340824
 30
0.0
  0
VERTEX
  5
49
330
47
100
AcDbEntity
  8
Layer 1
 62
    40
370
    13
100
AcDbVertex
100
AcDb2dVertex
 10
114.6099872395155
 20
814.1594576340824
 30
0.0
  0
VERTEX
  5
4A
330
47
100
AcDbEntity
  8
Layer 1
 62
    40
370
    13
100
AcDbVertex
100
AcDb2dVertex
 10
107.7633223248048
 20
804.0145883096317
 30
0.0
  0
VERTEX
  5
4B
330
47
100
AcDbEntity
  8
Layer 1
 62
    40
370
    13
100
AcDbVertex
100
AcDb2dVertex
 10
107.7565906831558
 20
804.0145883096317
 30
0.0
  0
VERTEX
  5
4C
330
47
100
AcDbEntity
  8
Layer 1
 62
    40
370
    13
100
AcDbVertex
100
AcDb2dVertex
 10
107.7565906831558
 20
821.2871539535381
 30
0.0
  0
VERTEX
  5
4D
330
47
100
AcDbEntity
  8
Layer 1
 62
    40
370
    13
100
AcDbVertex
100
AcDb2dVertex
 10
102.6275480365828
 20
821.2871539535381
 30
0.0
  0
VERTEX
  5
4E
330
47
100
AcDbEntity
  8
Layer 1
 62
    40
370
    13
100
AcDbVertex
100
AcDb2dVertex
 10
102.6275480365828
 20
792.893396802363
 30
0.0
  0
VERTEX
  5
4F
330
47
100
AcDbEntity
  8
Layer 1
 62
    40
370
    13
100
AcDbVertex
100
AcDb2dVertex
 10
107.7565906831558
 20
792.893396802363
 30
0.0
  0
VERTEX
  5
50
330
47
100
AcDbEntity
  8
Layer 1
 62
    40
370
    13
100
AcDbVertex
100
AcDb2dVertex
 10
107.7565906831558
 20
802.9941555815229
 30
0.0
  0
VERTEX
  5
51
330
47
100
AcDbEntity
  8
Layer 1
 62
    40
370
    13
100
AcDbVertex
100
AcDb2dVertex
 10
115.3474824839075
 20
792.893396802363
 30
0.0
  0
VERTEX
  5
52
330
47
100
AcDbEntity
  8
Layer 1
 62
    40
370
    13
100
AcDbVertex
100
AcDb2dVertex
 10
121.4902518264425
 20
792.893396802363
 30
0.0
  0
VERTEX
  5
53
330
47
100
AcDbEntity
  8
Layer 1
 62
    40
370
    13
100
AcDbVertex
100
AcDb2dVertex
 10
112.6218700492173
 20
803.8812798540249
 30
0.0
  0
VERTEX
  5
54
330
47
100
AcDbEntity
  8
Layer 1
 62
    40
370
    13
100
AcDbVertex
100
AcDb2dVertex
 10
120.5551975337298
 20
814.1594576340824
 30
0.0
  0
SEQEND
  5
55
330
47
100
AcDbEntity
  8
Layer 1
 62
    40
370
    13
  0
SPLINE
  5
56
330
41
100
AcDbEntity
  8
Layer 1
 62
    40
370
    13
100
AcDbSpline
210
0.0
220
0.0
230
1.0
 70
    11
 71
     3
 72
    17
 73
    13
 74
     0
 42
0.0000000001
 43
0.0000000001
 12
1.0
 22
0.0
 32
0.0
 13
1.0
 23
0.0
 33
0.0
 40
0.0
 40
0.0
 40
0.0
 40
0.0
 40
1.0
 40
1.0
 40
1.0
 40
2.0
 40
2.0
 40
2.0
 40
3.0
 40
3.0
 40
3.0
 40
4.0
 40
4.0
 40
4.0
 40
4.0
 10
124.2648305343213
 20
821.7033763927963
 30
0.0
 10
123.0573447302604
 20
821.7033763927963
 30
0.0
 10
122.0494129129569
 20
820.7500646991798
 30
0.0
 10
122.0494129129569
 20
819.487006094864
 30
0.0
 10
122.0494129129569
 20
818.2229948139623
 30
0.0
 10
123.0573447302604
 20
817.2696831203458
 30
0.0
 10
124.2648305343213
 20
817.2696831203458
 30
0.0
 10
125.4674259319614
 20
817.2696831203458
 30
0.0
 10
126.4831061854069
 20
818.2229948139623
 30
0.0
 10
126.4831061854069
 20
819.487006094864
 30
0.0
 10
126.4831061854069
 20
820.7500646991798
 30
0.0
 10
125.4674259319614
 20
821.7033763927963
 30
0.0
 10
124.2648305343213
 20
821.7033763927963
 30
0.0
  0
SPLINE
  5
57
330
41
100
AcDbEntity
  8
Layer 1
 62
    40
370
    13
100
AcDbSpline
210
0.0
220
0.0
230
1.0
 70
    11
 71
     3
 72
    17
 73
    13
 74
     0
 42
0.0000000001
 43
0.0000000001
 12
1.0
 22
0.0
 32
0.0
 13
1.0
 23
0.0
 33
0.0
 40
0.0
 40
0.0
 40
0.0
 40
0.0
 40
1.0
 40
1.0
 40
1.0
 40
2.0
 40
2.0
 40
2.0
 40
3.0
 40
3.0
 40
3.0
 40
4.0
 40
4.0
 40
4.0
 40
4.0
 10
124.2648305343213
 20
817.5928945266659
 30
0.0
 10
123.2471814159481
 20
817.5928945266659
 30
0.0
 10
122.4425507799435
 20
818.413847687997
 30
0.0
 10
122.4425507799435
 20
819.487006094864
 30
0.0
 10
122.4425507799435
 20
820.5582591485693
 30
0.0
 10
123.2471814159481
 20
821.3821338514099
 30
0.0
 10
124.2648305343213
 20
821.3821338514099
 30
0.0
 10
125.2794945994214
 20
821.3821338514099
 30
0.0
 10
126.0899048066512
 20
820.5582591485693
 30
0.0
 10
126.0899048066512
 20
819.487006094864
 30
0.0
 10
126.0899048066512
 20
818.413847687997
 30
0.0
 10
125.2794945994214
 20
817.5928945266659
 30
0.0
 10
124.2648305343213
 20
817.5928945266659
 30
0.0
  0
SPLINE
  5
58
330
41
100
AcDbEntity
  8
Layer 1
 62
    40
370
    13
100
AcDbSpline
210
0.0
220
0.0
230
1.0
 70
    11
 71
     3
 72
    35
 73
    31
 74
     0
 42
0.0000000001
 43
0.0000000001
 12
1.0
 22
0.0
 32
0.0
 13
1.0
 23
0.0
 33
0.0
 40
0.0
 40
0.0
 40
0.0
 40
0.0
 40
1.0
 40
1.0
 40
1.0
 40
2.0
 40
2.0
 40
2.0
 40
3.0
 40
3.0
 40
3.0
 40
4.0
 40
4.0
 40
4.0
 40
5.0
 40
5.0
 40
5.0
 40
6.0
 40
6.0
 40
6.0
 40
7.0
 40
7.0
 40
7.0
 40
8.0
 40
8.0
 40
8.0
 40
9.0
 40
9.0
 40
9.0
 40
10.0
 40
10.0
 40
10.0
 40
10.0
 10
124.6177019380321
 20
819.337435872449
 30
0.0
 10
125.0042345807581
 20
819.377702335721
 30
0.0
 10
125.3043912139404
 20
819.5742712692129
 30
0.0
 10
125.3043912139404
 20
820.0480690862998
 30
0.0
 10
125.3043912139404
 20
820.5410474584326
 30
0.0
 10
125.0099506402159
 20
820.7846151030017
 30
0.0
 10
124.39623639002
 20
820.7846151030017
 30
0.0
 10
124.39623639002
 20
820.7846151030017
 30
0.0
 10
123.4198699232677
 20
820.7846151030017
 30
0.0
 10
123.4198699232677
 20
820.7846151030017
 30
0.0
 10
123.4198699232677
 20
820.7846151030017
 30
0.0
 10
123.4198699232677
 20
818.1923186282221
 30
0.0
 10
123.4198699232677
 20
818.1923186282221
 30
0.0
 10
123.4198699232677
 20
818.1923186282221
 30
0.0
 10
123.8140239786037
 20
818.1923186282221
 30
0.0
 10
123.8140239786037
 20
818.1923186282221
 30
0.0
 10
123.8140239786037
 20
818.1923186282221
 30
0.0
 10
123.8140239786037
 20
819.3086650398566
 30
0.0
 10
123.8140239786037
 20
819.3086650398566
 30
0.0
 10
123.8140239786037
 20
819.3086650398566
 30
0.0
 10
124.2350435133776
 20
819.3086650398566
 30
0.0
 10
124.2350435133776
 20
819.3086650398566
 30
0.0
 10
124.2350435133776
 20
819.3086650398566
 30
0.0
 10
124.9399606677726
 20
818.1923186282221
 30
0.0
 10
124.9399606677726
 20
818.1923186282221
 30
0.0
 10
124.9399606677726
 20
818.1923186282221
 30
0.0
 10
125.3619328791223
 20
818.1923186282221
 30
0.0
 10
125.3619328791223
 20
818.1923186282221
 30
0.0
 10
125.3619328791223
 20
818.1923186282221
 30
0.0
 10
124.6177019380321
 20
819.337435872449
 30
0.0
 10
124.6177019380321
 20
819.337435872449
 30
0.0
  0
SPLINE
  5
59
330
41
100
AcDbEntity
  8
Layer 1
 62
    40
370
    13
100
AcDbSpline
210
0.0
220
0.0
230
1.0
 70
    11
 71
     3
 72
    20
 73
    16
 74
     0
 42
0.0000000001
 43
0.0000000001
 12
1.0
 22
0.0
 32
0.0
 13
1.0
 23
0.0
 33
0.0
 40
0.0
 40
0.0
 40
0.0
 40
0.0
 40
1.0
 40
1.0
 40
1.0
 40
2.0
 40
2.0
 40
2.0
 40
3.0
 40
3.0
 40
3.0
 40
4.0
 40
4.0
 40
4.0
 40
5.0
 40
5.0
 40
5.0
 40
5.0
 10
124.2177683114709
 20
819.6280022280953
 30
0.0
 10
124.2177683114709
 20
819.6280022280953
 30
0.0
 10
123.8140239786037
 20
819.6280022280953
 30
0.0
 10
123.8140239786037
 20
819.6280022280953
 30
0.0
 10
123.8140239786037
 20
819.6280022280953
 30
0.0
 10
123.8140239786037
 20
820.4633725616153
 30
0.0
 10
123.8140239786037
 20
820.4633725616153
 30
0.0
 10
123.8140239786037
 20
820.4633725616153
 30
0.0
 10
124.3299936121135
 20
820.4633725616153
 30
0.0
 10
124.3299936121135
 20
820.4633725616153
 30
0.0
 10
124.5995375713209
 20
820.4633725616153
 30
0.0
 10
124.9111898351783
 20
820.4201845568339
 30
0.0
 10
124.9111898351783
 20
820.0653442881979
 30
0.0
 10
124.9111898351783
 20
819.6490881363067
 30
0.0
 10
124.5697505503773
 20
819.6280022280953
 30
0.0
 10
124.2177683114709
 20
819.6280022280953
 30
0.0
  0
POLYLINE
  5
5A
330
41
100
AcDbEntity
  8
Layer 1
 62
    40
370
    13
100
AcDb2dPolyline
 66
     1
 10
0.0
 20
0.0
 30
0.0
  0
VERTEX
  5
5B
330
5A
100
AcDbEntity
  8
Layer 1
 62
    40
370
    13
100
AcDbVertex
100
AcDb2dVertex
 10
36.37613581532992
 20
799.7381666136143
 30
0.0
  0
VERTEX
  5
5C
330
5A
100
AcDbEntity
  8
Layer 1
 62
    40
370
    13
100
AcDbVertex
100
AcDb2dVertex
 10
28.83505816276721
 20
821.2871539535381
 30
0.0
  0
VERTEX
  5
5D
330
5A
100
AcDbEntity
  8
Layer 1
 62
    40
370
    13
100
AcDbVertex
100
AcDb2dVertex
 10
21.49926631241421
 20
821.2871539535381
 30
0.0
  0
VERTEX
  5
5E
330
5A
100
AcDbEntity
  8
Layer 1
 62
    40
370
    13
100
AcDbVertex
100
AcDb2dVertex
 10
21.49926631241421
 20
792.893396802363
 30
0.0
  0
VERTEX
  5
5F
330
5A
100
AcDbEntity
  8
Layer 1
 62
    40
370
    13
100
AcDbVertex
100
AcDb2dVertex
 10
26.75299066949033
 20
792.893396802363
 30
0.0
  0
VERTEX
  5
60
330
5A
100
AcDbEntity
  8
Layer 1
 62
    40
370
    13
100
AcDbVertex
100
AcDb2dVertex
 10
26.75299066949033
 20
814.347438727074
 30
0.0
  0
VERTEX
  5
61
330
5A
100
AcDbEntity
  8
Layer 1
 62
    40
370
    13
100
AcDbVertex
100
AcDb2dVertex
 10
34.26140522606264
 20
792.893396802363
 30
0.0
  0
VERTEX
  5
62
330
5A
100
AcDbEntity
  8
Layer 1
 62
    40
370
    13
100
AcDbVertex
100
AcDb2dVertex
 10
38.4620666855558
 20
792.893396802363
 30
0.0
  0
VERTEX
  5
63
330
5A
100
AcDbEntity
  8
Layer 1
 62
    40
370
    13
100
AcDbVertex
100
AcDb2dVertex
 10
45.95133996544975
 20
814.4184063274303
 30
0.0
  0
VERTEX
  5
64
330
5A
100
AcDbEntity
  8
Layer 1
 62
    40
370
    13
100
AcDbVertex
100
AcDb2dVertex
 10
45.95133996544975
 20
792.893396802363
 30
0.0
  0
VERTEX
  5
65
330
5A
100
AcDbEntity
  8
Layer 1
 62
    40
370
    13
100
AcDbVertex
100
AcDb2dVertex
 10
51.20500578650751
 20
792.893396802363
 30
0.0
  0
VERTEX
  5
66
330
5A
100
AcDbEntity
  8
Layer 1
 62
    40
370
    13
100
AcDbVertex
100
AcDb2dVertex
 10
51.20500578650751
 20
821.2871539535381
 30
0.0
  0
VERTEX
  5
67
330
5A
100
AcDbEntity
  8
Layer 1
 62
    40
370
    13
100
AcDbVertex
100
AcDb2dVertex
 10
43.87015051238459
 20
821.2871539535381
 30
0.0
  0
VERTEX
  5
68
330
5A
100
AcDbEntity
  8
Layer 1
 62
    40
370
    13
100
AcDbVertex
100
AcDb2dVertex
 10
36.37613581532992
 20
799.7381666136143
 30
0.0
  0
SEQEND
  5
69
330
5A
100
AcDbEntity
  8
Layer 1
 62
    40
370
    13
  0
POLYLINE
  5
6A
330
41
100
AcDbEntity
  8
Layer 1
 62
    40
370
    13
100
AcDb2dPolyline
 66
     1
 10
0.0
 20
0.0
 30
0.0
  0
VERTEX
  5
6B
330
6A
100
AcDbEntity
  8
Layer 1
 62
    40
370
    13
100
AcDbVertex
100
AcDb2dVertex
 10
55.69624002107607
 20
816.5992972468831
 30
0.0
  0
VERTEX
  5
6C
330
6A
100
AcDbEntity
  8
Layer 1
 62
    40
370
    13
100
AcDbVertex
100
AcDb2dVertex
 10
60.82335097917477
 20
816.5992972468831
 30
0.0
  0
VERTEX
  5
6D
330
6A
100
AcDbEntity
  8
Layer 1
 62
    40
370
    13
100
AcDbVertex
100
AcDb2dVertex
 10
60.82335097917477
 20
821.2871539535381
 30
0.0
  0
VERTEX
  5
6E
330
6A
100
AcDbEntity
  8
Layer 1
 62
    40
370
    13
100
AcDbVertex
100
AcDb2dVertex
 10
55.69624002107607
 20
821.2871539535381
 30
0.0
  0
VERTEX
  5
6F
330
6A
100
AcDbEntity
  8
Layer 1
 62
    40
370
    13
100
AcDbVertex
100
AcDb2dVertex
 10
55.69624002107607
 20
816.5992972468831
 30
0.0
  0
SEQEND
  5
70
330
6A
100
AcDbEntity
  8
Layer 1
 62
    40
370
    13
  0
POLYLINE
  5
71
330
41
100
AcDbEntity
  8
Layer 1
 62
    40
370
    13
100
AcDb2dPolyline
 66
     1
 10
0.0
 20
0.0
 30
0.0
  0
VERTEX
  5
72
330
71
100
AcDbEntity
  8
Layer 1
 62
    40
370
    13
100
AcDbVertex
100
AcDb2dVertex
 10
55.69624002107607
 20
792.893396802363
 30
0.0
  0
VERTEX
  5
73
330
71
100
AcDbEntity
  8
Layer 1
 62
    40
370
    13
100
AcDbVertex
100
AcDb2dVertex
 10
60.82335097917477
 20
792.893396802363
 30
0.0
  0
VERTEX
  5
74
330
71
100
AcDbEntity
  8
Layer 1
 62
    40
370
    13
100
AcDbVertex
100
AcDb2dVertex
 10
60.82335097917477
 20
814.1594576340824
 30
0.0
  0
VERTEX
  5
75
330
71
100
AcDbEntity
  8
Layer 1
 62
    40
370
    13
100
AcDbVertex
100
AcDb2dVertex
 10
55.69624002107607
 20
814.1594576340824
 30
0.0
  0
VERTEX
  5
76
330
71
100
AcDbEntity
  8
Layer 1
 62
    40
370
    13
100
AcDbVertex
100
AcDb2dVertex
 10
55.69624002107607
 20
792.893396802363
 30
0.0
  0
SEQEND
  5
77
330
71
100
AcDbEntity
  8
Layer 1
 62
    40
370
    13
  0
POLYLINE
  5
78
330
41
100
AcDbEntity
  8
Layer 1
 62
    40
370
    13
100
AcDb2dPolyline
 66
     1
 10
0.0
 20
0.0
 30
0.0
  0
VERTEX
  5
79
330
78
100
AcDbEntity
  8
Layer 1
 62
    40
370
    13
100
AcDbVertex
100
AcDb2dVertex
 10
78.93609135359242
 20
821.2871539535381
 30
0.0
  0
VERTEX
  5
7A
330
78
100
AcDbEntity
  8
Layer 1
 62
    40
370
    13
100
AcDbVertex
100
AcDb2dVertex
 10
63.05123168412419
 20
821.2871539535381
 30
0.0
  0
VERTEX
  5
7B
330
78
100
AcDbEntity
  8
Layer 1
 62
    40
370
    13
100
AcDbVertex
100
AcDb2dVertex
 10
63.05123168412419
 20
816.4093990994296
 30
0.0
  0
VERTEX
  5
7C
330
78
100
AcDbEntity
  8
Layer 1
 62
    40
370
    13
100
AcDbVertex
100
AcDb2dVertex
 10
68.36536520796788
 20
816.4093990994296
 30
0.0
  0
VERTEX
  5
7D
330
78
100
AcDbEntity
  8
Layer 1
 62
    40
370
    13
100
AcDbVertex
100
AcDb2dVertex
 10
68.36536520796788
 20
792.893396802363
 30
0.0
  0
VERTEX
  5
7E
330
78
100
AcDbEntity
  8
Layer 1
 62
    40
370
    13
100
AcDbVertex
100
AcDb2dVertex
 10
73.61908956504656
 20
792.893396802363
 30
0.0
  0
VERTEX
  5
7F
330
78
100
AcDbEntity
  8
Layer 1
 62
    40
370
    13
100
AcDbVertex
100
AcDb2dVertex
 10
73.61908956504656
 20
816.4093990994296
 30
0.0
  0
VERTEX
  5
80
330
78
100
AcDbEntity
  8
Layer 1
 62
    40
370
    13
100
AcDbVertex
100
AcDb2dVertex
 10
78.93609135359242
 20
816.4093990994296
 30
0.0
  0
VERTEX
  5
81
330
78
100
AcDbEntity
  8
Layer 1
 62
    40
370
    13
100
AcDbVertex
100
AcDb2dVertex
 10
78.93609135359242
 20
821.2871539535381
 30
0.0
  0
SEQEND
  5
82
330
78
100
AcDbEntity
  8
Layer 1
 62
    40
370
    13
  0
ENDBLK
  5
44
330
41
100
AcDbEntity
  8
0
100
AcDbBlockEnd
  0
BLOCK
  5
85
330
83
100
AcDbEntity
  8
0
100
AcDbBlockBegin
  2
block 3
 70
     0
 10
0.0
 20
0.0
 30
0.0
  3
block 3
  1

  0
SPLINE
  5
87
330
83
100
AcDbEntity
  8
Layer 1
 62
    40
370
    13
100
AcDbSpline
210
0.0
220
0.0
230
1.0
 70
    11
 71
     3
 72
    26
 73
    22
 74
     0
 42
0.0000000001
 43
0.0000000001
 12
1.0
 22
0.0
 32
0.0
 13
1.0
 23
0.0
 33
0.0
 40
0.0
 40
0.0
 40
0.0
 40
0.0
 40
1.0
 40
1.0
 40
1.0
 40
2.0
 40
2.0
 40
2.0
 40
3.0
 40
3.0
 40
3.0
 40
4.0
 40
4.0
 40
4.0
 40
5.0
 40
5.0
 40
5.0
 40
6.0
 40
6.0
 40
6.0
 40
7.0
 40
7.0
 40
7.0
 40
7.0
 10
32.93718208453717
 20
781.4177087040829
 30
0.0
 10
38.55646670458726
 20
781.4177087040829
 30
0.0
 10
41.80646877183318
 20
778.2477720472377
 30
0.0
 10
41.80646877183318
 20
773.3915598079848
 30
0.0
 10
41.80646877183318
 20
770.2216231511433
 30
0.0
 10
39.71986613740567
 20
768.2134519391518
 30
0.0
 10
38.2754207741828
 20
767.491229257539
 30
0.0
 10
40.04176176699183
 20
766.6889411655252
 30
0.0
 10
42.24764552304641
 20
764.8833844614979
 30
0.0
 10
42.24764552304641
 20
761.0712905334444
 30
0.0
 10
42.24764552304641
 20
755.7314178558302
 30
0.0
 10
38.55646670458726
 20
752.8425271293818
 30
0.0
 10
33.45842424615093
 20
752.8425271293818
 30
0.0
 10
33.45842424615093
 20
752.8425271293818
 30
0.0
 10
21.49926631241421
 20
752.8425271293818
 30
0.0
 10
21.49926631241421
 20
752.8425271293818
 30
0.0
 10
21.49926631241421
 20
752.8425271293818
 30
0.0
 10
21.49926631241421
 20
781.4177087040829
 30
0.0
 10
21.49926631241421
 20
781.4177087040829
 30
0.0
 10
21.49926631241421
 20
781.4177087040829
 30
0.0
 10
32.93718208453717
 20
781.4177087040829
 30
0.0
 10
32.93718208453717
 20
781.4177087040829
 30
0.0
  0
SPLINE
  5
88
330
83
100
AcDbEntity
  8
Layer 1
 62
    40
370
    13
100
AcDbSpline
210
0.0
220
0.0
230
1.0
 70
    11
 71
     3
 72
    20
 73
    16
 74
     0
 42
0.0000000001
 43
0.0000000001
 12
1.0
 22
0.0
 32
0.0
 13
1.0
 23
0.0
 33
0.0
 40
0.0
 40
0.0
 40
0.0
 40
0.0
 40
1.0
 40
1.0
 40
1.0
 40
2.0
 40
2.0
 40
2.0
 40
3.0
 40
3.0
 40
3.0
 40
4.0
 40
4.0
 40
4.0
 40
5.0
 40
5.0
 40
5.0
 40
5.0
 10
27.07770123327362
 20
776.4422153432108
 30
0.0
 10
27.07770123327362
 20
776.4422153432108
 30
0.0
 10
27.07770123327362
 20
769.8196621111521
 30
0.0
 10
27.07770123327362
 20
769.8196621111521
 30
0.0
 10
27.07770123327362
 20
769.8196621111521
 30
0.0
 10
32.57607074373249
 20
769.8196621111521
 30
0.0
 10
32.57607074373249
 20
769.8196621111521
 30
0.0
 10
34.94371930855999
 20
769.8196621111521
 30
0.0
 10
36.22803385097378
 20
771.1431923647834
 30
0.0
 10
36.22803385097378
 20
773.151363576771
 30
0.0
 10
36.22803385097378
 20
775.1170511016109
 30
0.0
 10
34.94371930855999
 20
776.4422153432108
 30
0.0
 10
32.57607074373249
 20
776.4422153432108
 30
0.0
 10
32.57607074373249
 20
776.4422153432108
 30
0.0
 10
27.07770123327362
 20
776.4422153432108
 30
0.0
 10
27.07770123327362
 20
776.4422153432108
 30
0.0
  0
SPLINE
  5
89
330
83
100
AcDbEntity
  8
Layer 1
 62
    40
370
    13
100
AcDbSpline
210
0.0
220
0.0
230
1.0
 70
    11
 71
     3
 72
    20
 73
    16
 74
     0
 42
0.0000000001
 43
0.0000000001
 12
1.0
 22
0.0
 32
0.0
 13
1.0
 23
0.0
 33
0.0
 40
0.0
 40
0.0
 40
0.0
 40
0.0
 40
1.0
 40
1.0
 40
1.0
 40
2.0
 40
2.0
 40
2.0
 40
3.0
 40
3.0
 40
3.0
 40
4.0
 40
4.0
 40
4.0
 40
5.0
 40
5.0
 40
5.0
 40
5.0
 10
27.07770123327362
 20
764.8425347623114
 30
0.0
 10
27.07770123327362
 20
764.8425347623114
 30
0.0
 10
27.07770123327362
 20
757.8196544782228
 30
0.0
 10
27.07770123327362
 20
757.8196544782228
 30
0.0
 10
27.07770123327362
 20
757.8196544782228
 30
0.0
 10
32.93718208453717
 20
757.8196544782228
 30
0.0
 10
32.93718208453717
 20
757.8196544782228
 30
0.0
 10
35.42574575895556
 20
757.8196544782228
 30
0.0
 10
36.66921060218668
 20
759.345799239818
 30
0.0
 10
36.66921060218668
 20
761.3523364638444
 30
0.0
 10
36.66921060218668
 20
763.3163900007158
 30
0.0
 10
35.42574575895556
 20
764.8425347623114
 30
0.0
 10
32.93718208453717
 20
764.8425347623114
 30
0.0
 10
32.93718208453717
 20
764.8425347623114
 30
0.0
 10
27.07770123327362
 20
764.8425347623114
 30
0.0
 10
27.07770123327362
 20
764.8425347623114
 30
0.0
  0
SPLINE
  5
8A
330
83
100
AcDbEntity
  8
Layer 1
 62
    40
370
    13
100
AcDbSpline
210
0.0
220
0.0
230
1.0
 70
    11
 71
     3
 72
    29
 73
    25
 74
     0
 42
0.0000000001
 43
0.0000000001
 12
1.0
 22
0.0
 32
0.0
 13
1.0
 23
0.0
 33
0.0
 40
0.0
 40
0.0
 40
0.0
 40
0.0
 40
1.0
 40
1.0
 40
1.0
 40
2.0
 40
2.0
 40
2.0
 40
3.0
 40
3.0
 40
3.0
 40
4.0
 40
4.0
 40
4.0
 40
5.0
 40
5.0
 40
5.0
 40
6.0
 40
6.0
 40
6.0
 40
7.0
 40
7.0
 40
7.0
 40
8.0
 40
8.0
 40
8.0
 40
8.0
 10
64.97968612615728
 20
778.6497330872328
 30
0.0
 10
67.82936114138418
 20
775.8392737832202
 30
0.0
 10
67.86857685260686
 20
772.5892717159743
 30
0.0
 10
67.86857685260686
 20
767.1301179167342
 30
0.0
 10
67.86857685260686
 20
761.6725981054664
 30
0.0
 10
67.82936114138418
 20
758.4209620502412
 30
0.0
 10
64.97968612615728
 20
755.6105027462393
 30
0.0
 10
63.01236461334847
 20
753.6856649205862
 30
0.0
 10
60.60386634933509
 20
752.6006969101996
 30
0.0
 10
57.31301458289848
 20
752.6006969101996
 30
0.0
 10
54.02216281646572
 20
752.6006969101996
 30
0.0
 10
51.61366455244787
 20
753.6856649205862
 30
0.0
 10
49.64797702760707
 20
755.6105027462393
 30
0.0
 10
46.79830201238465
 20
758.4601777614662
 30
0.0
 10
46.75745231319781
 20
761.6725981054664
 30
0.0
 10
46.75745231319781
 20
767.1301179167342
 30
0.0
 10
46.75745231319781
 20
772.5892717159743
 30
0.0
 10
46.79830201238465
 20
775.8000580720023
 30
0.0
 10
49.64797702760707
 20
778.6497330872328
 30
0.0
 10
51.61366455244787
 20
780.5762049008513
 30
0.0
 10
54.02216281646572
 20
781.6595389232652
 30
0.0
 10
57.31301458289848
 20
781.6595389232652
 30
0.0
 10
60.60386634933509
 20
781.6595389232652
 30
0.0
 10
63.01236461334847
 20
780.5762049008513
 30
0.0
 10
64.97968612615728
 20
778.6497330872328
 30
0.0
  0
SPLINE
  5
8B
330
83
100
AcDbEntity
  8
Layer 1
 62
    40
370
    13
100
AcDbSpline
210
0.0
220
0.0
230
1.0
 70
    11
 71
     3
 72
    29
 73
    25
 74
     0
 42
0.0000000001
 43
0.0000000001
 12
1.0
 22
0.0
 32
0.0
 13
1.0
 23
0.0
 33
0.0
 40
0.0
 40
0.0
 40
0.0
 40
0.0
 40
1.0
 40
1.0
 40
1.0
 40
2.0
 40
2.0
 40
2.0
 40
3.0
 40
3.0
 40
3.0
 40
4.0
 40
4.0
 40
4.0
 40
5.0
 40
5.0
 40
5.0
 40
6.0
 40
6.0
 40
6.0
 40
7.0
 40
7.0
 40
7.0
 40
8.0
 40
8.0
 40
8.0
 40
8.0
 10
53.74111688606158
 20
775.1579008007942
 30
0.0
 10
52.65778286364755
 20
773.9536516687887
 30
0.0
 10
52.3358872340617
 20
772.5892717159743
 30
0.0
 10
52.3358872340617
 20
767.1301179167342
 30
0.0
 10
52.3358872340617
 20
761.6725981054664
 30
0.0
 10
52.65778286364755
 20
760.3490678518313
 30
0.0
 10
53.74111688606158
 20
759.143184731854
 30
0.0
 10
54.5434049780798
 20
758.221615518214
 30
0.0
 10
55.78850380927059
 20
757.5778242590407
 30
0.0
 10
57.31301458289848
 20
757.5778242590407
 30
0.0
 10
58.83915934449342
 20
757.5778242590407
 30
0.0
 10
60.0826241877207
 20
758.221615518214
 30
0.0
 10
60.88491227973475
 20
759.143184731854
 30
0.0
 10
61.96824630215294
 20
760.3490678518313
 30
0.0
 10
62.29014193173719
 20
761.6725981054664
 30
0.0
 10
62.29014193173719
 20
767.1301179167342
 30
0.0
 10
62.29014193173719
 20
772.5892717159743
 30
0.0
 10
61.96824630215294
 20
773.9536516687887
 30
0.0
 10
60.88491227973475
 20
775.1579008007942
 30
0.0
 10
60.0826241877207
 20
776.0811040024058
 30
0.0
 10
58.83915934449342
 20
776.6824115744247
 30
0.0
 10
57.31301458289848
 20
776.6824115744247
 30
0.0
 10
55.78850380927059
 20
776.6824115744247
 30
0.0
 10
54.5434049780798
 20
776.0811040024058
 30
0.0
 10
53.74111688606158
 20
775.1579008007942
 30
0.0
  0
POLYLINE
  5
8C
330
83
100
AcDbEntity
  8
Layer 1
 62
    40
370
    13
100
AcDb2dPolyline
 66
     1
 10
0.0
 20
0.0
 30
0.0
  0
VERTEX
  5
8D
330
8C
100
AcDbEntity
  8
Layer 1
 62
    40
370
    13
100
AcDbVertex
100
AcDb2dVertex
 10
97.70356315020437
 20
752.8425271293818
 30
0.0
  0
VERTEX
  5
8E
330
8C
100
AcDbEntity
  8
Layer 1
 62
    40
370
    13
100
AcDbVertex
100
AcDb2dVertex
 10
93.00748173176372
 20
752.8425271293818
 30
0.0
  0
VERTEX
  5
8F
330
8C
100
AcDbEntity
  8
Layer 1
 62
    40
370
    13
100
AcDbVertex
100
AcDb2dVertex
 10
87.74930845252247
 20
770.1399237527702
 30
0.0
  0
VERTEX
  5
90
330
8C
100
AcDbEntity
  8
Layer 1
 62
    40
370
    13
100
AcDbVertex
100
AcDb2dVertex
 10
82.53198487246775
 20
752.8425271293818
 30
0.0
  0
VERTEX
  5
91
330
8C
100
AcDbEntity
  8
Layer 1
 62
    40
370
    13
100
AcDbVertex
100
AcDb2dVertex
 10
77.87675315321296
 20
752.8425271293818
 30
0.0
  0
VERTEX
  5
92
330
8C
100
AcDbEntity
  8
Layer 1
 62
    40
370
    13
100
AcDbVertex
100
AcDb2dVertex
 10
70.21008160995417
 20
781.4177087040829
 30
0.0
  0
VERTEX
  5
93
330
8C
100
AcDbEntity
  8
Layer 1
 62
    40
370
    13
100
AcDbVertex
100
AcDb2dVertex
 10
76.03034674999729
 20
781.4177087040829
 30
0.0
  0
VERTEX
  5
94
330
8C
100
AcDbEntity
  8
Layer 1
 62
    40
370
    13
100
AcDbVertex
100
AcDb2dVertex
 10
80.44538223804055
 20
763.4373051103067
 30
0.0
  0
VERTEX
  5
95
330
8C
100
AcDbEntity
  8
Layer 1
 62
    40
370
    13
100
AcDbVertex
100
AcDb2dVertex
 10
85.70192152931153
 20
781.4177087040829
 30
0.0
  0
VERTEX
  5
96
330
8C
100
AcDbEntity
  8
Layer 1
 62
    40
370
    13
100
AcDbVertex
100
AcDb2dVertex
 10
89.83591108695032
 20
781.4177087040829
 30
0.0
  0
VERTEX
  5
97
330
8C
100
AcDbEntity
  8
Layer 1
 62
    40
370
    13
100
AcDbVertex
100
AcDb2dVertex
 10
95.09408436619573
 20
763.4373051103067
 30
0.0
  0
VERTEX
  5
98
330
8C
100
AcDbEntity
  8
Layer 1
 62
    40
370
    13
100
AcDbVertex
100
AcDb2dVertex
 10
99.50911985423609
 20
781.4177087040829
 30
0.0
  0
VERTEX
  5
99
330
8C
100
AcDbEntity
  8
Layer 1
 62
    40
370
    13
100
AcDbVertex
100
AcDb2dVertex
 10
105.3293849942773
 20
781.4177087040829
 30
0.0
  0
VERTEX
  5
9A
330
8C
100
AcDbEntity
  8
Layer 1
 62
    40
370
    13
100
AcDbVertex
100
AcDb2dVertex
 10
97.70356315020437
 20
752.8425271293818
 30
0.0
  0
SEQEND
  5
9B
330
8C
100
AcDbEntity
  8
Layer 1
 62
    40
370
    13
  0
POLYLINE
  5
9C
330
83
100
AcDbEntity
  8
Layer 1
 62
    40
370
    13
100
AcDb2dPolyline
 66
     1
 10
0.0
 20
0.0
 30
0.0
  0
VERTEX
  5
9D
330
9C
100
AcDbEntity
  8
Layer 1
 62
    40
370
    13
100
AcDbVertex
100
AcDb2dVertex
 10
134.80652792701
 20
752.8425271293818
 30
0.0
  0
VERTEX
  5
9E
330
9C
100
AcDbEntity
  8
Layer 1
 62
    40
370
    13
100
AcDbVertex
100
AcDb2dVertex
 10
129.2280930061506
 20
752.8425271293818
 30
0.0
  0
VERTEX
  5
9F
330
9C
100
AcDbEntity
  8
Layer 1
 62
    40
370
    13
100
AcDbVertex
100
AcDb2dVertex
 10
129.2280930061506
 20
769.4585507703474
 30
0.0
  0
VERTEX
  5
A0
330
9C
100
AcDbEntity
  8
Layer 1
 62
    40
370
    13
100
AcDbVertex
100
AcDb2dVertex
 10
123.7705731948776
 20
759.3033155526703
 30
0.0
  0
VERTEX
  5
A1
330
9C
100
AcDbEntity
  8
Layer 1
 62
    40
370
    13
100
AcDbVertex
100
AcDb2dVertex
 10
119.9976949780457
 20
759.3033155526703
 30
0.0
  0
VERTEX
  5
A2
330
9C
100
AcDbEntity
  8
Layer 1
 62
    40
370
    13
100
AcDbVertex
100
AcDb2dVertex
 10
114.4993254675865
 20
769.4585507703474
 30
0.0
  0
VERTEX
  5
A3
330
9C
100
AcDbEntity
  8
Layer 1
 62
    40
370
    13
100
AcDbVertex
100
AcDb2dVertex
 10
114.4993254675865
 20
752.8425271293818
 30
0.0
  0
VERTEX
  5
A4
330
9C
100
AcDbEntity
  8
Layer 1
 62
    40
370
    13
100
AcDbVertex
100
AcDb2dVertex
 10
108.920890546723
 20
752.8425271293818
 30
0.0
  0
VERTEX
  5
A5
330
9C
100
AcDbEntity
  8
Layer 1
 62
    40
370
    13
100
AcDbVertex
100
AcDb2dVertex
 10
108.920890546723
 20
781.4177087040829
 30
0.0
  0
VERTEX
  5
A6
330
9C
100
AcDbEntity
  8
Layer 1
 62
    40
370
    13
100
AcDbVertex
100
AcDb2dVertex
 10
114.4192600571818
 20
781.4177087040829
 30
0.0
  0
VERTEX
  5
A7
330
9C
100
AcDbEntity
  8
Layer 1
 62
    40
370
    13
100
AcDbVertex
100
AcDb2dVertex
 10
121.8833170924777
 20
766.6088757551205
 30
0.0
  0
VERTEX
  5
A8
330
9C
100
AcDbEntity
  8
Layer 1
 62
    40
370
    13
100
AcDbVertex
100
AcDb2dVertex
 10
129.308158416555
 20
781.4177087040829
 30
0.0
  0
VERTEX
  5
A9
330
9C
100
AcDbEntity
  8
Layer 1
 62
    40
370
    13
100
AcDbVertex
100
AcDb2dVertex
 10
134.80652792701
 20
781.4177087040829
 30
0.0
  0
VERTEX
  5
AA
330
9C
100
AcDbEntity
  8
Layer 1
 62
    40
370
    13
100
AcDbVertex
100
AcDb2dVertex
 10
134.80652792701
 20
752.8425271293818
 30
0.0
  0
SEQEND
  5
AB
330
9C
100
AcDbEntity
  8
Layer 1
 62
    40
370
    13
  0
POLYLINE
  5
AC
330
83
100
AcDbEntity
  8
Layer 1
 62
    40
370
    13
100
AcDb2dPolyline
 66
     1
 10
0.0
 20
0.0
 30
0.0
  0
VERTEX
  5
AD
330
AC
100
AcDbEntity
  8
Layer 1
 62
    40
370
    13
100
AcDbVertex
100
AcDb2dVertex
 10
163.5614481781308
 20
752.8425271293818
 30
0.0
  0
VERTEX
  5
AE
330
AC
100
AcDbEntity
  8
Layer 1
 62
    40
370
    13
100
AcDbVertex
100
AcDb2dVertex
 10
157.7019673268672
 20
752.8425271293818
 30
0.0
  0
VERTEX
  5
AF
330
AC
100
AcDbEntity
  8
Layer 1
 62
    40
370
    13
100
AcDbVertex
100
AcDb2dVertex
 10
156.0156917444632
 20
757.8980859006658
 30
0.0
  0
VERTEX
  5
B0
330
AC
100
AcDbEntity
  8
Layer 1
 62
    40
370
    13
100
AcDbVertex
100
AcDb2dVertex
 10
145.9029402139396
 20
757.8980859006658
 30
0.0
  0
VERTEX
  5
B1
330
AC
100
AcDbEntity
  8
Layer 1
 62
    40
370
    13
100
AcDbVertex
100
AcDb2dVertex
 10
144.1758149323449
 20
752.8425271293818
 30
0.0
  0
VERTEX
  5
B2
330
AC
100
AcDbEntity
  8
Layer 1
 62
    40
370
    13
100
AcDbVertex
100
AcDb2dVertex
 10
138.316334081083
 20
752.8425271293818
 30
0.0
  0
VERTEX
  5
B3
330
AC
100
AcDbEntity
  8
Layer 1
 62
    40
370
    13
100
AcDbVertex
100
AcDb2dVertex
 10
148.7509812411988
 20
781.4177087040829
 30
0.0
  0
VERTEX
  5
B4
330
AC
100
AcDbEntity
  8
Layer 1
 62
    40
370
    13
100
AcDbVertex
100
AcDb2dVertex
 10
153.1268010180172
 20
781.4177087040829
 30
0.0
  0
VERTEX
  5
B5
330
AC
100
AcDbEntity
  8
Layer 1
 62
    40
370
    13
100
AcDbVertex
100
AcDb2dVertex
 10
163.5614481781308
 20
752.8425271293818
 30
0.0
  0
SEQEND
  5
B6
330
AC
100
AcDbEntity
  8
Layer 1
 62
    40
370
    13
  0
POLYLINE
  5
B7
330
83
100
AcDbEntity
  8
Layer 1
 62
    40
370
    13
100
AcDb2dPolyline
 66
     1
 10
0.0
 20
0.0
 30
0.0
  0
VERTEX
  5
B8
330
B7
100
AcDbEntity
  8
Layer 1
 62
    40
370
    13
100
AcDbVertex
100
AcDb2dVertex
 10
147.4274509875627
 20
762.5941673191027
 30
0.0
  0
VERTEX
  5
B9
330
B7
100
AcDbEntity
  8
Layer 1
 62
    40
370
    13
100
AcDbVertex
100
AcDb2dVertex
 10
154.4503312716495
 20
762.5941673191027
 30
0.0
  0
VERTEX
  5
BA
330
B7
100
AcDbEntity
  8
Layer 1
 62
    40
370
    13
100
AcDbVertex
100
AcDb2dVertex
 10
150.9584989852176
 20
772.950383056779
 30
0.0
  0
VERTEX
  5
BB
330
B7
100
AcDbEntity
  8
Layer 1
 62
    40
370
    13
100
AcDbVertex
100
AcDb2dVertex
 10
147.4274509875627
 20
762.5941673191027
 30
0.0
  0
SEQEND
  5
BC
330
B7
100
AcDbEntity
  8
Layer 1
 62
    40
370
    13
  0
SPLINE
  5
BD
330
83
100
AcDbEntity
  8
Layer 1
 62
    40
370
    13
100
AcDbSpline
210
0.0
220
0.0
230
1.0
 70
    11
 71
     3
 72
    47
 73
    43
 74
     0
 42
0.0000000001
 43
0.0000000001
 12
1.0
 22
0.0
 32
0.0
 13
1.0
 23
0.0
 33
0.0
 40
0.0
 40
0.0
 40
0.0
 40
0.0
 40
1.0
 40
1.0
 40
1.0
 40
2.0
 40
2.0
 40
2.0
 40
3.0
 40
3.0
 40
3.0
 40
4.0
 40
4.0
 40
4.0
 40
5.0
 40
5.0
 40
5.0
 40
6.0
 40
6.0
 40
6.0
 40
7.0
 40
7.0
 40
7.0
 40
8.0
 40
8.0
 40
8.0
 40
9.0
 40
9.0
 40
9.0
 40
10.0
 40
10.0
 40
10.0
 40
11.0
 40
11.0
 40
11.0
 40
12.0
 40
12.0
 40
12.0
 40
13.0
 40
13.0
 40
13.0
 40
14.0
 40
14.0
 40
14.0
 40
14.0
 10
186.7330315444872
 20
772.6284874271925
 30
0.0
 10
186.7330315444872
 20
772.6284874271925
 30
0.0
 10
181.0745312132231
 20
772.6284874271925
 30
0.0
 10
181.0745312132231
 20
772.6284874271925
 30
0.0
 10
180.512439352419
 20
774.9569202808018
 30
0.0
 10
179.0271442900099
 20
776.6824115744247
 30
0.0
 10
176.2575346851874
 20
776.6824115744247
 30
0.0
 10
174.7330239115601
 20
776.6824115744247
 30
0.0
 10
173.4879250803645
 20
776.1203197136241
 30
0.0
 10
172.6856369883466
 20
775.1971165120156
 30
0.0
 10
171.6415186771508
 20
773.9928673800065
 30
0.0
 10
171.2804073363464
 20
772.5892717159743
 30
0.0
 10
171.2804073363464
 20
767.1301179167342
 30
0.0
 10
171.2804073363464
 20
761.6725981054664
 30
0.0
 10
171.6415186771508
 20
760.267368453462
 30
0.0
 10
172.6856369883466
 20
759.064753309418
 30
0.0
 10
173.4879250803645
 20
758.1399161198409
 30
0.0
 10
174.7330239115601
 20
757.5778242590407
 30
0.0
 10
176.2575346851874
 20
757.5778242590407
 30
0.0
 10
179.0271442900099
 20
757.5778242590407
 30
0.0
 10
180.512439352419
 20
759.3033155526703
 30
0.0
 10
181.0745312132231
 20
761.6333823942447
 30
0.0
 10
181.0745312132231
 20
761.6333823942447
 30
0.0
 10
186.7330315444872
 20
761.6333823942447
 30
0.0
 10
186.7330315444872
 20
761.6333823942447
 30
0.0
 10
185.7297629324737
 20
755.6529864333909
 30
0.0
 10
181.5957733748372
 20
752.6006969101996
 30
0.0
 10
176.2575346851874
 20
752.6006969101996
 30
0.0
 10
172.9666829187511
 20
752.6006969101996
 30
0.0
 10
170.5581846547371
 20
753.6856649205862
 30
0.0
 10
168.5924971298963
 20
755.6105027462393
 30
0.0
 10
165.7428221146732
 20
758.4601777614662
 30
0.0
 10
165.701972415487
 20
761.6725981054664
 30
0.0
 10
165.701972415487
 20
767.1301179167342
 30
0.0
 10
165.701972415487
 20
772.5892717159743
 30
0.0
 10
165.7428221146732
 20
775.8000580720023
 30
0.0
 10
168.5924971298963
 20
778.6497330872328
 30
0.0
 10
170.5581846547371
 20
780.5762049008513
 30
0.0
 10
172.9666829187511
 20
781.6595389232652
 30
0.0
 10
176.2575346851874
 20
781.6595389232652
 30
0.0
 10
181.5957733748372
 20
781.6595389232652
 30
0.0
 10
185.7297629324737
 20
778.6088833880463
 30
0.0
 10
186.7330315444872
 20
772.6284874271925
 30
0.0
  0
SPLINE
  5
BE
330
83
100
AcDbEntity
  8
Layer 1
 62
    40
370
    13
100
AcDbSpline
210
0.0
220
0.0
230
1.0
 70
    11
 71
     3
 72
    17
 73
    13
 74
     0
 42
0.0000000001
 43
0.0000000001
 12
1.0
 22
0.0
 32
0.0
 13
1.0
 23
0.0
 33
0.0
 40
0.0
 40
0.0
 40
0.0
 40
0.0
 40
1.0
 40
1.0
 40
1.0
 40
2.0
 40
2.0
 40
2.0
 40
3.0
 40
3.0
 40
3.0
 40
4.0
 40
4.0
 40
4.0
 40
4.0
 10
188.9439371540986
 20
779.7264262141342
 30
0.0
 10
188.9439371540986
 20
780.9601349686644
 30
0.0
 10
189.9154836106307
 20
781.959097258646
 30
0.0
 10
191.1139331750788
 20
781.959097258646
 30
0.0
 10
192.3123827395262
 20
781.959097258646
 30
0.0
 10
193.2839291960628
 20
780.9601349686644
 30
0.0
 10
193.2839291960628
 20
779.7264262141342
 30
0.0
 10
193.2839291960628
 20
778.4933623674807
 30
0.0
 10
192.3123827395262
 20
777.4944000774849
 30
0.0
 10
191.1139331750788
 20
777.4944000774849
 30
0.0
 10
189.9154836106307
 20
777.4944000774849
 30
0.0
 10
188.9439371540986
 20
778.4933623674807
 30
0.0
 10
188.9439371540986
 20
779.7264262141342
 30
0.0
  0
SPLINE
  5
BF
330
83
100
AcDbEntity
  8
Layer 1
 62
    40
370
    13
100
AcDbSpline
210
0.0
220
0.0
230
1.0
 70
    11
 71
     3
 72
    17
 73
    13
 74
     0
 42
0.0000000001
 43
0.0000000001
 12
1.0
 22
0.0
 32
0.0
 13
1.0
 23
0.0
 33
0.0
 40
0.0
 40
0.0
 40
0.0
 40
0.0
 40
1.0
 40
1.0
 40
1.0
 40
2.0
 40
2.0
 40
2.0
 40
3.0
 40
3.0
 40
3.0
 40
4.0
 40
4.0
 40
4.0
 40
4.0
 10
192.7686961720188
 20
779.7264262141342
 30
0.0
 10
192.7686961720188
 20
780.7195843333039
 30
0.0
 10
192.0491249900187
 20
781.4592936597186
 30
0.0
 10
191.1139331750788
 20
781.4592936597186
 30
0.0
 10
190.1787413601424
 20
781.4592936597186
 30
0.0
 10
189.4591701781464
 20
780.7195843333039
 30
0.0
 10
189.4591701781464
 20
779.7264262141342
 30
0.0
 10
189.4591701781464
 20
778.7339130028375
 30
0.0
 10
190.1787413601424
 20
777.9935587685568
 30
0.0
 10
191.1139331750788
 20
777.9935587685568
 30
0.0
 10
192.0491249900187
 20
777.9935587685568
 30
0.0
 10
192.7686961720188
 20
778.7339130028375
 30
0.0
 10
192.7686961720188
 20
779.7264262141342
 30
0.0
  0
SPLINE
  5
C0
330
83
100
AcDbEntity
  8
Layer 1
 62
    40
370
    13
100
AcDbSpline
210
0.0
220
0.0
230
1.0
 70
    11
 71
     3
 72
    35
 73
    31
 74
     0
 42
0.0000000001
 43
0.0000000001
 12
1.0
 22
0.0
 32
0.0
 13
1.0
 23
0.0
 33
0.0
 40
0.0
 40
0.0
 40
0.0
 40
0.0
 40
1.0
 40
1.0
 40
1.0
 40
2.0
 40
2.0
 40
2.0
 40
3.0
 40
3.0
 40
3.0
 40
4.0
 40
4.0
 40
4.0
 40
5.0
 40
5.0
 40
5.0
 40
6.0
 40
6.0
 40
6.0
 40
7.0
 40
7.0
 40
7.0
 40
8.0
 40
8.0
 40
8.0
 40
9.0
 40
9.0
 40
9.0
 40
10.0
 40
10.0
 40
10.0
 40
10.0
 10
190.3229063182083
 20
780.9169261413895
 30
0.0
 10
190.3229063182083
 20
780.9169261413895
 30
0.0
 10
191.263112566467
 20
780.9169261413895
 30
0.0
 10
191.263112566467
 20
780.9169261413895
 30
0.0
 10
191.7307084739349
 20
780.9169261413895
 30
0.0
 10
192.0303208650512
 20
780.5654513524718
 30
0.0
 10
192.0303208650512
 20
780.1707677362828
 30
0.0
 10
192.0303208650512
 20
779.8437994463943
 30
0.0
 10
191.8272363154257
 20
779.63420438878
 30
0.0
 10
191.6053476408365
 20
779.5413376555596
 30
0.0
 10
191.6053476408365
 20
779.5413376555596
 30
0.0
 10
192.0904940649373
 20
778.542375365578
 30
0.0
 10
192.0904940649373
 20
778.542375365578
 30
0.0
 10
192.0904940649373
 20
778.542375365578
 30
0.0
 10
191.5038053660234
 20
778.542375365578
 30
0.0
 10
191.5038053660234
 20
778.542375365578
 30
0.0
 10
191.5038053660234
 20
778.542375365578
 30
0.0
 10
191.0838465751396
 20
779.4613690797413
 30
0.0
 10
191.0838465751396
 20
779.4613690797413
 30
0.0
 10
191.0838465751396
 20
779.4613690797413
 30
0.0
 10
190.8381393422564
 20
779.4613690797413
 30
0.0
 10
190.8381393422564
 20
779.4613690797413
 30
0.0
 10
190.8381393422564
 20
779.4613690797413
 30
0.0
 10
190.8381393422564
 20
778.542375365578
 30
0.0
 10
190.8381393422564
 20
778.542375365578
 30
0.0
 10
190.8381393422564
 20
778.542375365578
 30
0.0
 10
190.3229063182083
 20
778.542375365578
 30
0.0
 10
190.3229063182083
 20
778.542375365578
 30
0.0
 10
190.3229063182083
 20
778.542375365578
 30
0.0
 10
190.3229063182083
 20
780.9169261413895
 30
0.0
 10
190.3229063182083
 20
780.9169261413895
 30
0.0
  0
SPLINE
  5
C1
330
83
100
AcDbEntity
  8
Layer 1
 62
    40
370
    13
100
AcDbSpline
210
0.0
220
0.0
230
1.0
 70
    11
 71
     3
 72
    20
 73
    16
 74
     0
 42
0.0000000001
 43
0.0000000001
 12
1.0
 22
0.0
 32
0.0
 13
1.0
 23
0.0
 33
0.0
 40
0.0
 40
0.0
 40
0.0
 40
0.0
 40
1.0
 40
1.0
 40
1.0
 40
2.0
 40
2.0
 40
2.0
 40
3.0
 40
3.0
 40
3.0
 40
4.0
 40
4.0
 40
4.0
 40
5.0
 40
5.0
 40
5.0
 40
5.0
 10
191.1979249332585
 20
779.8625017746224
 30
0.0
 10
191.3897270079002
 20
779.8625017746224
 30
0.0
 10
191.5150878410034
 20
780.0043815059221
 30
0.0
 10
191.5150878410034
 20
780.1707677362828
 30
0.0
 10
191.5150878410034
 20
780.3371539666332
 30
0.0
 10
191.3897270079002
 20
780.4790336979438
 30
0.0
 10
191.1979249332585
 20
780.4790336979438
 30
0.0
 10
191.1979249332585
 20
780.4790336979438
 30
0.0
 10
190.8381393422564
 20
780.4790336979438
 30
0.0
 10
190.8381393422564
 20
780.4790336979438
 30
0.0
 10
190.8381393422564
 20
780.4790336979438
 30
0.0
 10
190.8381393422564
 20
779.8625017746224
 30
0.0
 10
190.8381393422564
 20
779.8625017746224
 30
0.0
 10
190.8381393422564
 20
779.8625017746224
 30
0.0
 10
191.1979249332585
 20
779.8625017746224
 30
0.0
 10
191.1979249332585
 20
779.8625017746224
 30
0.0
  0
ENDBLK
  5
86
330
83
100
AcDbEntity
  8
0
100
AcDbBlockEnd
  0
BLOCK
  5
C4
330
C2
100
AcDbEntity
  8
0
100
AcDbBlockBegin
  2
block 4
 70
     0
 10
0.0
 20
0.0
 30
0.0
  3
block 4
  1

  0
SPLINE
  5
C6
330
C2
100
AcDbEntity
  8
Layer 1
 62
    40
370
    13
100
AcDbSpline
210
0.0
220
0.0
230
1.0
 70
    11
 71
     3
 72
    65
 73
    61
 74
     0
 42
0.0000000001
 43
0.0000000001
 12
1.0
 22
0.0
 32
0.0
 13
1.0
 23
0.0
 33
0.0
 40
0.0
 40
0.0
 40
0.0
 40
0.0
 40
1.0
 40
1.0
 40
1.0
 40
2.0
 40
2.0
 40
2.0
 40
3.0
 40
3.0
 40
3.0
 40
4.0
 40
4.0
 40
4.0
 40
5.0
 40
5.0
 40
5.0
 40
6.0
 40
6.0
 40
6.0
 40
7.0
 40
7.0
 40
7.0
 40
8.0
 40
8.0
 40
8.0
 40
9.0
 40
9.0
 40
9.0
 40
10.0
 40
10.0
 40
10.0
 40
11.0
 40
11.0
 40
11.0
 40
12.0
 40
12.0
 40
12.0
 40
13.0
 40
13.0
 40
13.0
 40
14.0
 40
14.0
 40
14.0
 40
15.0
 40
15.0
 40
15.0
 40
16.0
 40
16.0
 40
16.0
 40
17.0
 40
17.0
 40
17.0
 40
18.0
 40
18.0
 40
18.0
 40
19.0
 40
19.0
 40
19.0
 40
20.0
 40
20.0
 40
20.0
 40
20.0
 10
34.44845820450313
 20
739.9685355302204
 30
0.0
 10
34.44845820450313
 20
739.9685355302204
 30
0.0
 10
33.06257188006558
 20
738.582649205779
 30
0.0
 10
33.06257188006558
 20
738.582649205779
 30
0.0
 10
31.84704367524057
 20
739.7429261285661
 30
0.0
 10
30.4623084191764
 20
740.3368774104666
 30
0.0
 10
28.369666112006
 20
740.3368774104666
 30
0.0
 10
25.65544688191786
 20
740.3368774104666
 30
0.0
 10
24.10035350623729
 20
738.8381863852035
 30
0.0
 10
24.10035350623729
 20
736.5751859584167
 30
0.0
 10
24.10035350623729
 20
735.5852671552489
 30
0.0
 10
24.38351632667927
 20
734.7657064716911
 30
0.0
 10
25.00509324960085
 20
734.2293086085747
 30
0.0
 10
25.62667017252213
 20
733.6929107454656
 30
0.0
 10
26.58781226629896
 20
733.352194506229
 30
0.0
 10
27.63413341988352
 20
733.1841385233699
 30
0.0
 10
27.63413341988352
 20
733.1841385233699
 30
0.0
 10
29.98116183810016
 20
732.8157966431199
 30
0.0
 10
29.98116183810016
 20
732.8157966431199
 30
0.0
 10
31.84704367524057
 20
732.5326338226779
 30
0.0
 10
32.72300670921
 20
732.1942197201951
 30
0.0
 10
33.62774645257358
 20
731.3746590366409
 30
0.0
 10
34.7028443155513
 20
730.4399915155075
 30
0.0
 10
35.32442123847482
 20
729.0840329688365
 30
0.0
 10
35.32442123847482
 20
727.4149838239538
 30
0.0
 10
35.32442123847482
 20
723.8812039103076
 30
0.0
 10
32.58257636736305
 20
721.7033825433323
 30
0.0
 10
28.369666112006
 20
721.7033825433323
 30
0.0
 10
25.37228406147652
 20
721.7033825433323
 30
0.0
 10
23.36482081411288
 20
722.4676919448525
 30
0.0
 10
21.49893897697472
 20
724.362350491386
 30
0.0
 10
21.49893897697472
 20
724.362350491386
 30
0.0
 10
22.94122765182587
 20
725.8034880978619
 30
0.0
 10
22.94122765182587
 20
725.8034880978619
 30
0.0
 10
24.6091257283317
 20
724.1367410897356
 30
0.0
 10
26.16421910401227
 20
723.6256667308863
 30
0.0
 10
28.42606846241959
 20
723.6256667308863
 30
0.0
 10
31.39467380355975
 20
723.6256667308863
 30
0.0
 10
33.20415329028656
 20
724.983927414307
 30
0.0
 10
33.20415329028656
 20
727.3597325419194
 30
0.0
 10
33.20415329028656
 20
728.4325282681486
 30
0.0
 10
32.89336482882481
 20
729.2820167294736
 30
0.0
 10
32.21423448711367
 20
729.8759680113774
 30
0.0
 10
31.59265756419433
 20
730.4399915155075
 30
0.0
 10
31.0274829916844
 20
730.6379752761446
 30
0.0
 10
29.58519431683325
 20
730.8635846777913
 30
0.0
 10
29.58519431683325
 20
730.8635846777913
 30
0.0
 10
27.23816589861629
 20
731.204300917028
 30
0.0
 10
27.23816589861629
 20
731.204300917028
 30
0.0
 10
25.65544688191786
 20
731.4575359596957
 30
0.0
 10
24.46754431811071
 20
731.9386825407742
 30
0.0
 10
23.56280457474746
 20
732.7306175833115
 30
0.0
 10
22.54526013055703
 20
733.6353573266741
 30
0.0
 10
22.00771119906689
 20
734.8785111725164
 30
0.0
 10
22.00771119906689
 20
736.5199346763823
 30
0.0
 10
22.00771119906689
 20
739.9409098891997
 30
0.0
 10
24.46754431811071
 20
742.173982538216
 30
0.0
 10
28.45484517181533
 20
742.173982538216
 30
0.0
 10
31.0274829916844
 20
742.173982538216
 30
0.0
 10
32.72300670921
 20
741.494852196504
 30
0.0
 10
34.44845820450313
 20
739.9685355302204
 30
0.0
  0
SPLINE
  5
C7
330
C2
100
AcDbEntity
  8
Layer 1
 62
    40
370
    13
100
AcDbSpline
210
0.0
220
0.0
230
1.0
 70
    11
 71
     3
 72
    53
 73
    49
 74
     0
 42
0.0000000001
 43
0.0000000001
 12
1.0
 22
0.0
 32
0.0
 13
1.0
 23
0.0
 33
0.0
 40
0.0
 40
0.0
 40
0.0
 40
0.0
 40
1.0
 40
1.0
 40
1.0
 40
2.0
 40
2.0
 40
2.0
 40
3.0
 40
3.0
 40
3.0
 40
4.0
 40
4.0
 40
4.0
 40
5.0
 40
5.0
 40
5.0
 40
6.0
 40
6.0
 40
6.0
 40
7.0
 40
7.0
 40
7.0
 40
8.0
 40
8.0
 40
8.0
 40
9.0
 40
9.0
 40
9.0
 40
10.0
 40
10.0
 40
10.0
 40
11.0
 40
11.0
 40
11.0
 40
12.0
 40
12.0
 40
12.0
 40
13.0
 40
13.0
 40
13.0
 40
14.0
 40
14.0
 40
14.0
 40
15.0
 40
15.0
 40
15.0
 40
16.0
 40
16.0
 40
16.0
 40
16.0
 10
41.83716610863905
 20
735.7832509158828
 30
0.0
 10
41.83716610863905
 20
735.7832509158828
 30
0.0
 10
44.80577144977921
 20
735.7832509158828
 30
0.0
 10
44.80577144977921
 20
735.7832509158828
 30
0.0
 10
44.80577144977921
 20
735.7832509158828
 30
0.0
 10
44.80577144977921
 20
734.2293086085747
 30
0.0
 10
44.80577144977921
 20
734.2293086085747
 30
0.0
 10
44.80577144977921
 20
734.2293086085747
 30
0.0
 10
41.83716610863905
 20
734.2293086085747
 30
0.0
 10
41.83716610863905
 20
734.2293086085747
 30
0.0
 10
41.83716610863905
 20
734.2293086085747
 30
0.0
 10
41.83716610863905
 20
725.6630577560194
 30
0.0
 10
41.83716610863905
 20
725.6630577560194
 30
0.0
 10
41.83716610863905
 20
724.362350491386
 30
0.0
 10
42.43111739054665
 20
723.6256667308863
 30
0.0
 10
43.73182465517488
 20
723.6256667308863
 30
0.0
 10
43.73182465517488
 20
723.6256667308863
 30
0.0
 10
44.80577144977921
 20
723.6256667308863
 30
0.0
 10
44.80577144977921
 20
723.6256667308863
 30
0.0
 10
44.80577144977921
 20
723.6256667308863
 30
0.0
 10
44.80577144977921
 20
721.8737406629484
 30
0.0
 10
44.80577144977921
 20
721.8737406629484
 30
0.0
 10
44.80577144977921
 20
721.8737406629484
 30
0.0
 10
43.36348277492582
 20
721.8737406629484
 30
0.0
 10
43.36348277492582
 20
721.8737406629484
 30
0.0
 10
40.98882871569132
 20
721.8737406629484
 30
0.0
 10
39.80092615188385
 20
723.5427898078318
 30
0.0
 10
39.80092615188385
 20
725.6055043372282
 30
0.0
 10
39.80092615188385
 20
725.6055043372282
 30
0.0
 10
39.80092615188385
 20
734.2293086085747
 30
0.0
 10
39.80092615188385
 20
734.2293086085747
 30
0.0
 10
39.80092615188385
 20
734.2293086085747
 30
0.0
 10
38.04784901557062
 20
734.2293086085747
 30
0.0
 10
38.04784901557062
 20
734.2293086085747
 30
0.0
 10
38.04784901557062
 20
734.2293086085747
 30
0.0
 10
38.04784901557062
 20
735.7832509158828
 30
0.0
 10
38.04784901557062
 20
735.7832509158828
 30
0.0
 10
38.04784901557062
 20
735.7832509158828
 30
0.0
 10
39.80092615188385
 20
735.7832509158828
 30
0.0
 10
39.80092615188385
 20
735.7832509158828
 30
0.0
 10
39.80092615188385
 20
735.7832509158828
 30
0.0
 10
39.80092615188385
 20
740.0537145900249
 30
0.0
 10
39.80092615188385
 20
740.0537145900249
 30
0.0
 10
39.80092615188385
 20
740.0537145900249
 30
0.0
 10
41.83716610863905
 20
740.0537145900249
 30
0.0
 10
41.83716610863905
 20
740.0537145900249
 30
0.0
 10
41.83716610863905
 20
740.0537145900249
 30
0.0
 10
41.83716610863905
 20
735.7832509158828
 30
0.0
 10
41.83716610863905
 20
735.7832509158828
 30
0.0
  0
SPLINE
  5
C8
330
C2
100
AcDbEntity
  8
Layer 1
 62
    40
370
    13
100
AcDbSpline
210
0.0
220
0.0
230
1.0
 70
    11
 71
     3
 72
    35
 73
    31
 74
     0
 42
0.0000000001
 43
0.0000000001
 12
1.0
 22
0.0
 32
0.0
 13
1.0
 23
0.0
 33
0.0
 40
0.0
 40
0.0
 40
0.0
 40
0.0
 40
1.0
 40
1.0
 40
1.0
 40
2.0
 40
2.0
 40
2.0
 40
3.0
 40
3.0
 40
3.0
 40
4.0
 40
4.0
 40
4.0
 40
5.0
 40
5.0
 40
5.0
 40
6.0
 40
6.0
 40
6.0
 40
7.0
 40
7.0
 40
7.0
 40
8.0
 40
8.0
 40
8.0
 40
9.0
 40
9.0
 40
9.0
 40
10.0
 40
10.0
 40
10.0
 40
10.0
 10
58.12593469431117
 20
734.6529017708658
 30
0.0
 10
58.12593469431117
 20
734.6529017708658
 30
0.0
 10
56.62724366904418
 20
733.1265851045823
 30
0.0
 10
56.62724366904418
 20
733.1265851045823
 30
0.0
 10
55.86408533590385
 20
733.8908945060989
 30
0.0
 10
55.29891076339393
 20
734.1441295487698
 30
0.0
 10
54.22496396879183
 20
734.1441295487698
 30
0.0
 10
52.1887240120347
 20
734.1441295487698
 30
0.0
 10
50.8880167474023
 20
732.5326338226779
 30
0.0
 10
50.8880167474023
 20
730.4123658744871
 30
0.0
 10
50.8880167474023
 20
730.4123658744871
 30
0.0
 10
50.8880167474023
 20
721.8737406629484
 30
0.0
 10
50.8880167474023
 20
721.8737406629484
 30
0.0
 10
50.8880167474023
 20
721.8737406629484
 30
0.0
 10
48.85292785902337
 20
721.8737406629484
 30
0.0
 10
48.85292785902337
 20
721.8737406629484
 30
0.0
 10
48.85292785902337
 20
721.8737406629484
 30
0.0
 10
48.85292785902337
 20
735.7832509158828
 30
0.0
 10
48.85292785902337
 20
735.7832509158828
 30
0.0
 10
48.85292785902337
 20
735.7832509158828
 30
0.0
 10
50.8880167474023
 20
735.7832509158828
 30
0.0
 10
50.8880167474023
 20
735.7832509158828
 30
0.0
 10
50.8880167474023
 20
735.7832509158828
 30
0.0
 10
50.8880167474023
 20
734.0865761299822
 30
0.0
 10
50.8880167474023
 20
734.0865761299822
 30
0.0
 10
51.6511750805468
 20
735.2468530527699
 30
0.0
 10
53.17864281520535
 20
735.9536090354957
 30
0.0
 10
54.79013854129727
 20
735.9536090354957
 30
0.0
 10
56.1184714469501
 20
735.9536090354957
 30
0.0
 10
57.13601589114052
 20
735.6428205740365
 30
0.0
 10
58.12593469431117
 20
734.6529017708658
 30
0.0
  0
SPLINE
  5
C9
330
C2
100
AcDbEntity
  8
Layer 1
 62
    40
370
    13
100
AcDbSpline
210
0.0
220
0.0
230
1.0
 70
    11
 71
     3
 72
    44
 73
    40
 74
     0
 42
0.0000000001
 43
0.0000000001
 12
1.0
 22
0.0
 32
0.0
 13
1.0
 23
0.0
 33
0.0
 40
0.0
 40
0.0
 40
0.0
 40
0.0
 40
1.0
 40
1.0
 40
1.0
 40
2.0
 40
2.0
 40
2.0
 40
3.0
 40
3.0
 40
3.0
 40
4.0
 40
4.0
 40
4.0
 40
5.0
 40
5.0
 40
5.0
 40
6.0
 40
6.0
 40
6.0
 40
7.0
 40
7.0
 40
7.0
 40
8.0
 40
8.0
 40
8.0
 40
9.0
 40
9.0
 40
9.0
 40
10.0
 40
10.0
 40
10.0
 40
11.0
 40
11.0
 40
11.0
 40
12.0
 40
12.0
 40
12.0
 40
13.0
 40
13.0
 40
13.0
 40
13.0
 10
71.59113255419167
 20
721.8737406629484
 30
0.0
 10
71.59113255419167
 20
721.8737406629484
 30
0.0
 10
69.5836693068306
 20
721.8737406629484
 30
0.0
 10
69.5836693068306
 20
721.8737406629484
 30
0.0
 10
69.5836693068306
 20
721.8737406629484
 30
0.0
 10
69.5836693068306
 20
723.4276829702527
 30
0.0
 10
69.5836693068306
 20
723.4276829702527
 30
0.0
 10
68.59375050366026
 20
722.297333825236
 30
0.0
 10
67.2090152475961
 20
721.7033825433323
 30
0.0
 10
65.65392187191777
 20
721.7033825433323
 30
0.0
 10
64.15523084664854
 20
721.7033825433323
 30
0.0
 10
62.91092593243197
 20
722.1569034833904
 30
0.0
 10
62.06373960785795
 20
723.0040898079653
 30
0.0
 10
61.07382080468538
 20
723.9663829701155
 30
0.0
 10
60.62145093300263
 20
725.2947158757694
 30
0.0
 10
60.62145093300263
 20
726.9062116018613
 30
0.0
 10
60.62145093300263
 20
726.9062116018613
 30
0.0
 10
60.62145093300263
 20
735.7832509158828
 30
0.0
 10
60.62145093300263
 20
735.7832509158828
 30
0.0
 10
60.62145093300263
 20
735.7832509158828
 30
0.0
 10
62.6565398213838
 20
735.7832509158828
 30
0.0
 10
62.6565398213838
 20
735.7832509158828
 30
0.0
 10
62.6565398213838
 20
735.7832509158828
 30
0.0
 10
62.6565398213838
 20
727.2170000633237
 30
0.0
 10
62.6565398213838
 20
727.2170000633237
 30
0.0
 10
62.6565398213838
 20
724.7583180126533
 30
0.0
 10
63.98602379540969
 20
723.5128620300575
 30
0.0
 10
66.07751503420445
 20
723.5128620300575
 30
0.0
 10
68.17015734137134
 20
723.5128620300575
 30
0.0
 10
69.55604366581306
 20
724.7859436536737
 30
0.0
 10
69.55604366581306
 20
727.2170000633237
 30
0.0
 10
69.55604366581306
 20
727.2170000633237
 30
0.0
 10
69.55604366581306
 20
735.7832509158828
 30
0.0
 10
69.55604366581306
 20
735.7832509158828
 30
0.0
 10
69.55604366581306
 20
735.7832509158828
 30
0.0
 10
71.59113255419167
 20
735.7832509158828
 30
0.0
 10
71.59113255419167
 20
735.7832509158828
 30
0.0
 10
71.59113255419167
 20
735.7832509158828
 30
0.0
 10
71.59113255419167
 20
721.8737406629484
 30
0.0
 10
71.59113255419167
 20
721.8737406629484
 30
0.0
  0
SPLINE
  5
CA
330
C2
100
AcDbEntity
  8
Layer 1
 62
    40
370
    13
100
AcDbSpline
210
0.0
220
0.0
230
1.0
 70
    11
 71
     3
 72
    41
 73
    37
 74
     0
 42
0.0000000001
 43
0.0000000001
 12
1.0
 22
0.0
 32
0.0
 13
1.0
 23
0.0
 33
0.0
 40
0.0
 40
0.0
 40
0.0
 40
0.0
 40
1.0
 40
1.0
 40
1.0
 40
2.0
 40
2.0
 40
2.0
 40
3.0
 40
3.0
 40
3.0
 40
4.0
 40
4.0
 40
4.0
 40
5.0
 40
5.0
 40
5.0
 40
6.0
 40
6.0
 40
6.0
 40
7.0
 40
7.0
 40
7.0
 40
8.0
 40
8.0
 40
8.0
 40
9.0
 40
9.0
 40
9.0
 40
10.0
 40
10.0
 40
10.0
 40
11.0
 40
11.0
 40
11.0
 40
12.0
 40
12.0
 40
12.0
 40
12.0
 10
86.69775391793706
 20
733.8908945060989
 30
0.0
 10
86.69775391793706
 20
733.8908945060989
 30
0.0
 10
85.31186759349725
 20
732.5901872414655
 30
0.0
 10
85.31186759349725
 20
732.5901872414655
 30
0.0
 10
84.2655464399127
 20
733.7481620274993
 30
0.0
 10
83.44598575635685
 20
734.1441295487698
 30
0.0
 10
82.11765285070723
 20
734.1441295487698
 30
0.0
 10
80.76054323566059
 20
734.1441295487698
 30
0.0
 10
79.62904302226896
 20
733.6077316856572
 30
0.0
 10
78.89466139852051
 20
732.5602594636952
 30
0.0
 10
78.24430776620511
 20
731.6555197203326
 30
0.0
 10
77.98992165515693
 20
730.5827239941032
 30
0.0
 10
77.98992165515693
 20
728.8284957894156
 30
0.0
 10
77.98992165515693
 20
727.076569721478
 30
0.0
 10
78.24430776620511
 20
726.0014718584952
 30
0.0
 10
78.89466139852051
 20
725.0967321151361
 30
0.0
 10
79.62904302226896
 20
724.0515620299275
 30
0.0
 10
80.76054323566059
 20
723.5128620300575
 30
0.0
 10
82.11765285070723
 20
723.5128620300575
 30
0.0
 10
83.44598575635685
 20
723.5128620300575
 30
0.0
 10
84.2655464399127
 20
723.9387573290984
 30
0.0
 10
85.31186759349725
 20
725.0967321151361
 30
0.0
 10
85.31186759349725
 20
725.0967321151361
 30
0.0
 10
86.69775391793706
 20
723.7683992094856
 30
0.0
 10
86.69775391793706
 20
723.7683992094856
 30
0.0
 10
85.25546524308335
 20
722.212154765428
 30
0.0
 10
84.03993703826059
 20
721.7033825433323
 30
0.0
 10
82.11765285070723
 20
721.7033825433323
 30
0.0
 10
78.61149857807852
 20
721.7033825433323
 30
0.0
 10
75.95368169840205
 20
724.0791876709446
 30
0.0
 10
75.95368169840205
 20
728.8284957894156
 30
0.0
 10
75.95368169840205
 20
733.5778039078865
 30
0.0
 10
78.61149857807852
 20
735.9536090354957
 30
0.0
 10
82.11765285070723
 20
735.9536090354957
 30
0.0
 10
84.03993703826059
 20
735.9536090354957
 30
0.0
 10
85.25546524308335
 20
735.4448368134032
 30
0.0
 10
86.69775391793706
 20
733.8908945060989
 30
0.0
  0
SPLINE
  5
CB
330
C2
100
AcDbEntity
  8
Layer 1
 62
    40
370
    13
100
AcDbSpline
210
0.0
220
0.0
230
1.0
 70
    11
 71
     3
 72
    53
 73
    49
 74
     0
 42
0.0000000001
 43
0.0000000001
 12
1.0
 22
0.0
 32
0.0
 13
1.0
 23
0.0
 33
0.0
 40
0.0
 40
0.0
 40
0.0
 40
0.0
 40
1.0
 40
1.0
 40
1.0
 40
2.0
 40
2.0
 40
2.0
 40
3.0
 40
3.0
 40
3.0
 40
4.0
 40
4.0
 40
4.0
 40
5.0
 40
5.0
 40
5.0
 40
6.0
 40
6.0
 40
6.0
 40
7.0
 40
7.0
 40
7.0
 40
8.0
 40
8.0
 40
8.0
 40
9.0
 40
9.0
 40
9.0
 40
10.0
 40
10.0
 40
10.0
 40
11.0
 40
11.0
 40
11.0
 40
12.0
 40
12.0
 40
12.0
 40
13.0
 40
13.0
 40
13.0
 40
14.0
 40
14.0
 40
14.0
 40
15.0
 40
15.0
 40
15.0
 40
16.0
 40
16.0
 40
16.0
 40
16.0
 10
92.95381054030283
 20
735.7832509158828
 30
0.0
 10
92.95381054030283
 20
735.7832509158828
 30
0.0
 10
95.92241588144297
 20
735.7832509158828
 30
0.0
 10
95.92241588144297
 20
735.7832509158828
 30
0.0
 10
95.92241588144297
 20
735.7832509158828
 30
0.0
 10
95.92241588144297
 20
734.2293086085747
 30
0.0
 10
95.92241588144297
 20
734.2293086085747
 30
0.0
 10
95.92241588144297
 20
734.2293086085747
 30
0.0
 10
92.95381054030283
 20
734.2293086085747
 30
0.0
 10
92.95381054030283
 20
734.2293086085747
 30
0.0
 10
92.95381054030283
 20
734.2293086085747
 30
0.0
 10
92.95381054030283
 20
725.6630577560194
 30
0.0
 10
92.95381054030283
 20
725.6630577560194
 30
0.0
 10
92.95381054030283
 20
724.362350491386
 30
0.0
 10
93.54776182220655
 20
723.6256667308863
 30
0.0
 10
94.8484690868412
 20
723.6256667308863
 30
0.0
 10
94.8484690868412
 20
723.6256667308863
 30
0.0
 10
95.92241588144297
 20
723.6256667308863
 30
0.0
 10
95.92241588144297
 20
723.6256667308863
 30
0.0
 10
95.92241588144297
 20
723.6256667308863
 30
0.0
 10
95.92241588144297
 20
721.8737406629484
 30
0.0
 10
95.92241588144297
 20
721.8737406629484
 30
0.0
 10
95.92241588144297
 20
721.8737406629484
 30
0.0
 10
94.48012720658959
 20
721.8737406629484
 30
0.0
 10
94.48012720658959
 20
721.8737406629484
 30
0.0
 10
92.10547314735508
 20
721.8737406629484
 30
0.0
 10
90.91757058354825
 20
723.5427898078318
 30
0.0
 10
90.91757058354825
 20
725.6055043372282
 30
0.0
 10
90.91757058354825
 20
725.6055043372282
 30
0.0
 10
90.91757058354825
 20
734.2293086085747
 30
0.0
 10
90.91757058354825
 20
734.2293086085747
 30
0.0
 10
90.91757058354825
 20
734.2293086085747
 30
0.0
 10
89.16449344723503
 20
734.2293086085747
 30
0.0
 10
89.16449344723503
 20
734.2293086085747
 30
0.0
 10
89.16449344723503
 20
734.2293086085747
 30
0.0
 10
89.16449344723503
 20
735.7832509158828
 30
0.0
 10
89.16449344723503
 20
735.7832509158828
 30
0.0
 10
89.16449344723503
 20
735.7832509158828
 30
0.0
 10
90.91757058354825
 20
735.7832509158828
 30
0.0
 10
90.91757058354825
 20
735.7832509158828
 30
0.0
 10
90.91757058354825
 20
735.7832509158828
 30
0.0
 10
90.91757058354825
 20
740.0537145900249
 30
0.0
 10
90.91757058354825
 20
740.0537145900249
 30
0.0
 10
90.91757058354825
 20
740.0537145900249
 30
0.0
 10
92.95381054030283
 20
740.0537145900249
 30
0.0
 10
92.95381054030283
 20
740.0537145900249
 30
0.0
 10
92.95381054030283
 20
740.0537145900249
 30
0.0
 10
92.95381054030283
 20
735.7832509158828
 30
0.0
 10
92.95381054030283
 20
735.7832509158828
 30
0.0
  0
SPLINE
  5
CC
330
C2
100
AcDbEntity
  8
Layer 1
 62
    40
370
    13
100
AcDbSpline
210
0.0
220
0.0
230
1.0
 70
    11
 71
     3
 72
    44
 73
    40
 74
     0
 42
0.0000000001
 43
0.0000000001
 12
1.0
 22
0.0
 32
0.0
 13
1.0
 23
0.0
 33
0.0
 40
0.0
 40
0.0
 40
0.0
 40
0.0
 40
1.0
 40
1.0
 40
1.0
 40
2.0
 40
2.0
 40
2.0
 40
3.0
 40
3.0
 40
3.0
 40
4.0
 40
4.0
 40
4.0
 40
5.0
 40
5.0
 40
5.0
 40
6.0
 40
6.0
 40
6.0
 40
7.0
 40
7.0
 40
7.0
 40
8.0
 40
8.0
 40
8.0
 40
9.0
 40
9.0
 40
9.0
 40
10.0
 40
10.0
 40
10.0
 40
11.0
 40
11.0
 40
11.0
 40
12.0
 40
12.0
 40
12.0
 40
13.0
 40
13.0
 40
13.0
 40
13.0
 10
110.7976725016555
 20
721.8737406629484
 30
0.0
 10
110.7976725016555
 20
721.8737406629484
 30
0.0
 10
108.7902092542944
 20
721.8737406629484
 30
0.0
 10
108.7902092542944
 20
721.8737406629484
 30
0.0
 10
108.7902092542944
 20
721.8737406629484
 30
0.0
 10
108.7902092542944
 20
723.4276829702527
 30
0.0
 10
108.7902092542944
 20
723.4276829702527
 30
0.0
 10
107.8002904511215
 20
722.297333825236
 30
0.0
 10
106.4155551950577
 20
721.7033825433323
 30
0.0
 10
104.8604618193794
 20
721.7033825433323
 30
0.0
 10
103.3617707941121
 20
721.7033825433323
 30
0.0
 10
102.1174658798936
 20
722.1569034833904
 30
0.0
 10
101.2691284869436
 20
723.0040898079653
 30
0.0
 10
100.280360752147
 20
723.9663829701155
 30
0.0
 10
99.82799088046615
 20
725.2947158757694
 30
0.0
 10
99.82799088046615
 20
726.9062116018613
 30
0.0
 10
99.82799088046615
 20
726.9062116018613
 30
0.0
 10
99.82799088046615
 20
735.7832509158828
 30
0.0
 10
99.82799088046615
 20
735.7832509158828
 30
0.0
 10
99.82799088046615
 20
735.7832509158828
 30
0.0
 10
101.8630797688454
 20
735.7832509158828
 30
0.0
 10
101.8630797688454
 20
735.7832509158828
 30
0.0
 10
101.8630797688454
 20
735.7832509158828
 30
0.0
 10
101.8630797688454
 20
727.2170000633237
 30
0.0
 10
101.8630797688454
 20
727.2170000633237
 30
0.0
 10
101.8630797688454
 20
724.7583180126533
 30
0.0
 10
103.1925637428732
 20
723.5128620300575
 30
0.0
 10
105.284054981666
 20
723.5128620300575
 30
0.0
 10
107.3766972888345
 20
723.5128620300575
 30
0.0
 10
108.7625836132743
 20
724.7859436536737
 30
0.0
 10
108.7625836132743
 20
727.2170000633237
 30
0.0
 10
108.7625836132743
 20
727.2170000633237
 30
0.0
 10
108.7625836132743
 20
735.7832509158828
 30
0.0
 10
108.7625836132743
 20
735.7832509158828
 30
0.0
 10
108.7625836132743
 20
735.7832509158828
 30
0.0
 10
110.7976725016555
 20
735.7832509158828
 30
0.0
 10
110.7976725016555
 20
735.7832509158828
 30
0.0
 10
110.7976725016555
 20
735.7832509158828
 30
0.0
 10
110.7976725016555
 20
721.8737406629484
 30
0.0
 10
110.7976725016555
 20
721.8737406629484
 30
0.0
  0
SPLINE
  5
CD
330
C2
100
AcDbEntity
  8
Layer 1
 62
    40
370
    13
100
AcDbSpline
210
0.0
220
0.0
230
1.0
 70
    11
 71
     3
 72
    35
 73
    31
 74
     0
 42
0.0000000001
 43
0.0000000001
 12
1.0
 22
0.0
 32
0.0
 13
1.0
 23
0.0
 33
0.0
 40
0.0
 40
0.0
 40
0.0
 40
0.0
 40
1.0
 40
1.0
 40
1.0
 40
2.0
 40
2.0
 40
2.0
 40
3.0
 40
3.0
 40
3.0
 40
4.0
 40
4.0
 40
4.0
 40
5.0
 40
5.0
 40
5.0
 40
6.0
 40
6.0
 40
6.0
 40
7.0
 40
7.0
 40
7.0
 40
8.0
 40
8.0
 40
8.0
 40
9.0
 40
9.0
 40
9.0
 40
10.0
 40
10.0
 40
10.0
 40
10.0
 10
125.1699122416499
 20
734.6529017708658
 30
0.0
 10
125.1699122416499
 20
734.6529017708658
 30
0.0
 10
123.6712212163848
 20
733.1265851045823
 30
0.0
 10
123.6712212163848
 20
733.1265851045823
 30
0.0
 10
122.9069118148666
 20
733.8908945060989
 30
0.0
 10
122.3405861739823
 20
734.1441295487698
 30
0.0
 10
121.2677904477546
 20
734.1441295487698
 30
0.0
 10
119.2303994226234
 20
734.1441295487698
 30
0.0
 10
117.9319942947429
 20
732.5326338226779
 30
0.0
 10
117.9319942947429
 20
730.4123658744871
 30
0.0
 10
117.9319942947429
 20
730.4123658744871
 30
0.0
 10
117.9319942947429
 20
721.8737406629484
 30
0.0
 10
117.9319942947429
 20
721.8737406629484
 30
0.0
 10
117.9319942947429
 20
721.8737406629484
 30
0.0
 10
115.8946032696098
 20
721.8737406629484
 30
0.0
 10
115.8946032696098
 20
721.8737406629484
 30
0.0
 10
115.8946032696098
 20
721.8737406629484
 30
0.0
 10
115.8946032696098
 20
735.7832509158828
 30
0.0
 10
115.8946032696098
 20
735.7832509158828
 30
0.0
 10
115.8946032696098
 20
735.7832509158828
 30
0.0
 10
117.9319942947429
 20
735.7832509158828
 30
0.0
 10
117.9319942947429
 20
735.7832509158828
 30
0.0
 10
117.9319942947429
 20
735.7832509158828
 30
0.0
 10
117.9319942947429
 20
734.0865761299822
 30
0.0
 10
117.9319942947429
 20
734.0865761299822
 30
0.0
 10
118.6940015595092
 20
735.2468530527699
 30
0.0
 10
120.2203182257941
 20
735.9536090354957
 30
0.0
 10
121.8318139518908
 20
735.9536090354957
 30
0.0
 10
123.1624489942885
 20
735.9536090354957
 30
0.0
 10
124.1799934384812
 20
735.6428205740365
 30
0.0
 10
125.1699122416499
 20
734.6529017708658
 30
0.0
  0
SPLINE
  5
CE
330
C2
100
AcDbEntity
  8
Layer 1
 62
    40
370
    13
100
AcDbSpline
210
0.0
220
0.0
230
1.0
 70
    11
 71
     3
 72
    47
 73
    43
 74
     0
 42
0.0000000001
 43
0.0000000001
 12
1.0
 22
0.0
 32
0.0
 13
1.0
 23
0.0
 33
0.0
 40
0.0
 40
0.0
 40
0.0
 40
0.0
 40
1.0
 40
1.0
 40
1.0
 40
2.0
 40
2.0
 40
2.0
 40
3.0
 40
3.0
 40
3.0
 40
4.0
 40
4.0
 40
4.0
 40
5.0
 40
5.0
 40
5.0
 40
6.0
 40
6.0
 40
6.0
 40
7.0
 40
7.0
 40
7.0
 40
8.0
 40
8.0
 40
8.0
 40
9.0
 40
9.0
 40
9.0
 40
10.0
 40
10.0
 40
10.0
 40
11.0
 40
11.0
 40
11.0
 40
12.0
 40
12.0
 40
12.0
 40
13.0
 40
13.0
 40
13.0
 40
14.0
 40
14.0
 40
14.0
 40
14.0
 10
137.4449054009755
 20
731.3171056178533
 30
0.0
 10
137.4449054009755
 20
731.3171056178533
 30
0.0
 10
137.4449054009755
 20
721.8737406629484
 30
0.0
 10
137.4449054009755
 20
721.8737406629484
 30
0.0
 10
137.4449054009755
 20
721.8737406629484
 30
0.0
 10
135.4098165125963
 20
721.8737406629484
 30
0.0
 10
135.4098165125963
 20
721.8737406629484
 30
0.0
 10
135.4098165125963
 20
721.8737406629484
 30
0.0
 10
135.4098165125963
 20
723.202073568599
 30
0.0
 10
135.4098165125963
 20
723.202073568599
 30
0.0
 10
134.3070930085987
 20
722.0993500646027
 30
0.0
 10
133.2596207866385
 20
721.7033825433323
 30
0.0
 10
131.3948900178741
 20
721.7033825433323
 30
0.0
 10
129.4726058303179
 20
721.7033825433323
 30
0.0
 10
128.425133608358
 20
722.0440987825651
 30
0.0
 10
127.4651425829568
 20
722.9764641669485
 30
0.0
 10
126.7583866002281
 20
723.655594508657
 30
0.0
 10
126.4176703609963
 20
724.7007645938656
 30
0.0
 10
126.4176703609963
 20
725.8034880978619
 30
0.0
 10
126.4176703609963
 20
728.2644722852855
 30
0.0
 10
128.1442729246679
 20
729.8184145925827
 30
0.0
 10
131.2521575392771
 20
729.8184145925827
 30
0.0
 10
131.2521575392771
 20
729.8184145925827
 30
0.0
 10
135.4098165125963
 20
729.8184145925827
 30
0.0
 10
135.4098165125963
 20
729.8184145925827
 30
0.0
 10
135.4098165125963
 20
729.8184145925827
 30
0.0
 10
135.4098165125963
 20
731.1467474982333
 30
0.0
 10
135.4098165125963
 20
731.1467474982333
 30
0.0
 10
135.4098165125963
 20
733.1542107455956
 30
0.0
 10
134.4198977094214
 20
734.2016829675574
 30
0.0
 10
131.8461088211764
 20
734.2016829675574
 30
0.0
 10
130.0941827532414
 20
734.2016829675574
 30
0.0
 10
129.1894430098762
 20
733.7481620274993
 30
0.0
 10
128.3399545485503
 20
732.5901872414655
 30
0.0
 10
128.3399545485503
 20
732.5901872414655
 30
0.0
 10
126.9563703608624
 20
733.8609667283285
 30
0.0
 10
126.9563703608624
 20
733.8609667283285
 30
0.0
 10
128.1718985656877
 20
735.4724624544205
 30
0.0
 10
129.5854105311457
 20
735.9536090354957
 30
0.0
 10
131.8760365989484
 20
735.9536090354957
 30
0.0
 10
135.6354259142487
 20
735.9536090354957
 30
0.0
 10
137.4449054009755
 20
734.3144876683828
 30
0.0
 10
137.4449054009755
 20
731.3171056178533
 30
0.0
  0
SPLINE
  5
CF
330
C2
100
AcDbEntity
  8
Layer 1
 62
    40
370
    13
100
AcDbSpline
210
0.0
220
0.0
230
1.0
 70
    11
 71
     3
 72
    23
 73
    19
 74
     0
 42
0.0000000001
 43
0.0000000001
 12
1.0
 22
0.0
 32
0.0
 13
1.0
 23
0.0
 33
0.0
 40
0.0
 40
0.0
 40
0.0
 40
0.0
 40
1.0
 40
1.0
 40
1.0
 40
2.0
 40
2.0
 40
2.0
 40
3.0
 40
3.0
 40
3.0
 40
4.0
 40
4.0
 40
4.0
 40
5.0
 40
5.0
 40
5.0
 40
6.0
 40
6.0
 40
6.0
 40
6.0
 10
131.5353203597188
 20
728.2920979262992
 30
0.0
 10
129.4426780525506
 20
728.2920979262992
 30
0.0
 10
128.3975079673382
 20
727.4725372427446
 30
0.0
 10
128.3975079673382
 20
725.8311137388823
 30
0.0
 10
128.3975079673382
 20
724.2196180127903
 30
0.0
 10
129.3874267705127
 20
723.4576107480234
 30
0.0
 10
131.6204994195259
 20
723.4576107480234
 30
0.0
 10
132.7807763423142
 20
723.4576107480234
 30
0.0
 10
133.7983207865021
 20
723.5704154488521
 30
0.0
 10
134.7030605298679
 20
724.3899761324033
 30
0.0
 10
135.1842071109425
 20
724.8434970724613
 30
0.0
 10
135.4098165125963
 20
725.633129978249
 30
0.0
 10
135.4098165125963
 20
726.7934069010361
 30
0.0
 10
135.4098165125963
 20
726.7934069010361
 30
0.0
 10
135.4098165125963
 20
728.2920979262992
 30
0.0
 10
135.4098165125963
 20
728.2920979262992
 30
0.0
 10
135.4098165125963
 20
728.2920979262992
 30
0.0
 10
131.5353203597188
 20
728.2920979262992
 30
0.0
 10
131.5353203597188
 20
728.2920979262992
 30
0.0
  0
SPLINE
  5
D0
330
C2
100
AcDbEntity
  8
Layer 1
 62
    40
370
    13
100
AcDbSpline
210
0.0
220
0.0
230
1.0
 70
    11
 71
     3
 72
    29
 73
    25
 74
     0
 42
0.0000000001
 43
0.0000000001
 12
1.0
 22
0.0
 32
0.0
 13
1.0
 23
0.0
 33
0.0
 40
0.0
 40
0.0
 40
0.0
 40
0.0
 40
1.0
 40
1.0
 40
1.0
 40
2.0
 40
2.0
 40
2.0
 40
3.0
 40
3.0
 40
3.0
 40
4.0
 40
4.0
 40
4.0
 40
5.0
 40
5.0
 40
5.0
 40
6.0
 40
6.0
 40
6.0
 40
7.0
 40
7.0
 40
7.0
 40
8.0
 40
8.0
 40
8.0
 40
8.0
 10
144.3812434334306
 20
725.6630577560194
 30
0.0
 10
144.3812434334306
 20
724.3047970725984
 30
0.0
 10
144.834764373487
 20
723.6256667308863
 30
0.0
 10
146.2482763389447
 20
723.6256667308863
 30
0.0
 10
146.2482763389447
 20
723.6256667308863
 30
0.0
 10
147.3509998429448
 20
723.6256667308863
 30
0.0
 10
147.3509998429448
 20
723.6256667308863
 30
0.0
 10
147.3509998429448
 20
723.6256667308863
 30
0.0
 10
147.3509998429448
 20
721.8737406629484
 30
0.0
 10
147.3509998429448
 20
721.8737406629484
 30
0.0
 10
147.3509998429448
 20
721.8737406629484
 30
0.0
 10
145.8799344586957
 20
721.8737406629484
 30
0.0
 10
145.8799344586957
 20
721.8737406629484
 30
0.0
 10
143.448878049045
 20
721.8737406629484
 30
0.0
 10
142.3461545450494
 20
723.4576107480234
 30
0.0
 10
142.3461545450494
 20
725.5778786962113
 30
0.0
 10
142.3461545450494
 20
725.5778786962113
 30
0.0
 10
142.3461545450494
 20
742.0036244186
 30
0.0
 10
142.3461545450494
 20
742.0036244186
 30
0.0
 10
142.3461545450494
 20
742.0036244186
 30
0.0
 10
144.3812434334306
 20
742.0036244186
 30
0.0
 10
144.3812434334306
 20
742.0036244186
 30
0.0
 10
144.3812434334306
 20
742.0036244186
 30
0.0
 10
144.3812434334306
 20
725.6630577560194
 30
0.0
 10
144.3812434334306
 20
725.6630577560194
 30
0.0
  0
SPLINE
  5
D1
330
C2
100
AcDbEntity
  8
Layer 1
 62
    40
370
    13
100
AcDbSpline
210
0.0
220
0.0
230
1.0
 70
    11
 71
     3
 72
    26
 73
    22
 74
     0
 42
0.0000000001
 43
0.0000000001
 12
1.0
 22
0.0
 32
0.0
 13
1.0
 23
0.0
 33
0.0
 40
0.0
 40
0.0
 40
0.0
 40
0.0
 40
1.0
 40
1.0
 40
1.0
 40
2.0
 40
2.0
 40
2.0
 40
3.0
 40
3.0
 40
3.0
 40
4.0
 40
4.0
 40
4.0
 40
5.0
 40
5.0
 40
5.0
 40
6.0
 40
6.0
 40
6.0
 40
7.0
 40
7.0
 40
7.0
 40
7.0
 10
165.7911152229486
 20
742.0036244186
 30
0.0
 10
169.2972694955751
 20
742.0036244186
 30
0.0
 10
171.7283259052251
 20
739.9961611712373
 30
0.0
 10
171.7283259052251
 20
736.6327393772075
 30
0.0
 10
171.7283259052251
 20
734.5124714290199
 30
0.0
 10
170.4575464183625
 20
732.8434222841403
 30
0.0
 10
168.7608716324628
 20
732.2218453612159
 30
0.0
 10
170.6831558200168
 20
731.5150893784904
 30
0.0
 10
172.0414165034346
 20
729.8460402336037
 30
0.0
 10
172.0414165034346
 20
727.4426094649742
 30
0.0
 10
172.0414165034346
 20
723.7960248505027
 30
0.0
 10
169.6080579570371
 20
721.8737406629484
 30
0.0
 10
166.0466524023708
 20
721.8737406629484
 30
0.0
 10
166.0466524023708
 20
721.8737406629484
 30
0.0
 10
158.2147831735608
 20
721.8737406629484
 30
0.0
 10
158.2147831735608
 20
721.8737406629484
 30
0.0
 10
158.2147831735608
 20
721.8737406629484
 30
0.0
 10
158.2147831735608
 20
742.0036244186
 30
0.0
 10
158.2147831735608
 20
742.0036244186
 30
0.0
 10
158.2147831735608
 20
742.0036244186
 30
0.0
 10
165.7911152229486
 20
742.0036244186
 30
0.0
 10
165.7911152229486
 20
742.0036244186
 30
0.0
  0
SPLINE
  5
D2
330
C2
100
AcDbEntity
  8
Layer 1
 62
    40
370
    13
100
AcDbSpline
210
0.0
220
0.0
230
1.0
 70
    11
 71
     3
 72
    20
 73
    16
 74
     0
 42
0.0000000001
 43
0.0000000001
 12
1.0
 22
0.0
 32
0.0
 13
1.0
 23
0.0
 33
0.0
 40
0.0
 40
0.0
 40
0.0
 40
0.0
 40
1.0
 40
1.0
 40
1.0
 40
2.0
 40
2.0
 40
2.0
 40
3.0
 40
3.0
 40
3.0
 40
4.0
 40
4.0
 40
4.0
 40
5.0
 40
5.0
 40
5.0
 40
5.0
 10
160.3626767627646
 20
740.0813402310457
 30
0.0
 10
160.3626767627646
 20
740.0813402310457
 30
0.0
 10
160.3626767627646
 20
733.0989594635615
 30
0.0
 10
160.3626767627646
 20
733.0989594635615
 30
0.0
 10
160.3626767627646
 20
733.0989594635615
 30
0.0
 10
165.6230592400819
 20
733.0989594635615
 30
0.0
 10
165.6230592400819
 20
733.0989594635615
 30
0.0
 10
167.856131889098
 20
733.0989594635615
 30
0.0
 10
169.5804323160167
 20
734.2016829675574
 30
0.0
 10
169.5804323160167
 20
736.605113736187
 30
0.0
 10
169.5804323160167
 20
739.0062423680666
 30
0.0
 10
167.856131889098
 20
740.0813402310457
 30
0.0
 10
165.6230592400819
 20
740.0813402310457
 30
0.0
 10
165.6230592400819
 20
740.0813402310457
 30
0.0
 10
160.3626767627646
 20
740.0813402310457
 30
0.0
 10
160.3626767627646
 20
740.0813402310457
 30
0.0
  0
SPLINE
  5
D3
330
C2
100
AcDbEntity
  8
Layer 1
 62
    40
370
    13
100
AcDbSpline
210
0.0
220
0.0
230
1.0
 70
    11
 71
     3
 72
    20
 73
    16
 74
     0
 42
0.0000000001
 43
0.0000000001
 12
1.0
 22
0.0
 32
0.0
 13
1.0
 23
0.0
 33
0.0
 40
0.0
 40
0.0
 40
0.0
 40
0.0
 40
1.0
 40
1.0
 40
1.0
 40
2.0
 40
2.0
 40
2.0
 40
3.0
 40
3.0
 40
3.0
 40
4.0
 40
4.0
 40
4.0
 40
5.0
 40
5.0
 40
5.0
 40
5.0
 10
160.3626767627646
 20
731.1766752760072
 30
0.0
 10
160.3626767627646
 20
731.1766752760072
 30
0.0
 10
160.3626767627646
 20
723.7960248505027
 30
0.0
 10
160.3626767627646
 20
723.7960248505027
 30
0.0
 10
160.3626767627646
 20
723.7960248505027
 30
0.0
 10
165.8486686417363
 20
723.7960248505027
 30
0.0
 10
165.8486686417363
 20
723.7960248505027
 30
0.0
 10
168.3372784701745
 20
723.7960248505027
 30
0.0
 10
169.8912207774788
 20
725.2371624569782
 30
0.0
 10
169.8912207774788
 20
727.5001628837654
 30
0.0
 10
169.8912207774788
 20
729.7608611737954
 30
0.0
 10
168.3372784701745
 20
731.1766752760072
 30
0.0
 10
165.8486686417363
 20
731.1766752760072
 30
0.0
 10
165.8486686417363
 20
731.1766752760072
 30
0.0
 10
160.3626767627646
 20
731.1766752760072
 30
0.0
 10
160.3626767627646
 20
731.1766752760072
 30
0.0
  0
SPLINE
  5
D4
330
C2
100
AcDbEntity
  8
Layer 1
 62
    40
370
    13
100
AcDbSpline
210
0.0
220
0.0
230
1.0
 70
    11
 71
     3
 72
    35
 73
    31
 74
     0
 42
0.0000000001
 43
0.0000000001
 12
1.0
 22
0.0
 32
0.0
 13
1.0
 23
0.0
 33
0.0
 40
0.0
 40
0.0
 40
0.0
 40
0.0
 40
1.0
 40
1.0
 40
1.0
 40
2.0
 40
2.0
 40
2.0
 40
3.0
 40
3.0
 40
3.0
 40
4.0
 40
4.0
 40
4.0
 40
5.0
 40
5.0
 40
5.0
 40
6.0
 40
6.0
 40
6.0
 40
7.0
 40
7.0
 40
7.0
 40
8.0
 40
8.0
 40
8.0
 40
9.0
 40
9.0
 40
9.0
 40
10.0
 40
10.0
 40
10.0
 40
10.0
 10
186.0176887221643
 20
734.6529017708658
 30
0.0
 10
186.0176887221643
 20
734.6529017708658
 30
0.0
 10
184.5189976968992
 20
733.1265851045823
 30
0.0
 10
184.5189976968992
 20
733.1265851045823
 30
0.0
 10
183.7546882953807
 20
733.8908945060989
 30
0.0
 10
183.1883626544968
 20
734.1441295487698
 30
0.0
 10
182.115566928269
 20
734.1441295487698
 30
0.0
 10
180.0804780398879
 20
734.1441295487698
 30
0.0
 10
178.7797707752574
 20
732.5326338226779
 30
0.0
 10
178.7797707752574
 20
730.4123658744871
 30
0.0
 10
178.7797707752574
 20
730.4123658744871
 30
0.0
 10
178.7797707752574
 20
721.8737406629484
 30
0.0
 10
178.7797707752574
 20
721.8737406629484
 30
0.0
 10
178.7797707752574
 20
721.8737406629484
 30
0.0
 10
176.7423797501243
 20
721.8737406629484
 30
0.0
 10
176.7423797501243
 20
721.8737406629484
 30
0.0
 10
176.7423797501243
 20
721.8737406629484
 30
0.0
 10
176.7423797501243
 20
735.7832509158828
 30
0.0
 10
176.7423797501243
 20
735.7832509158828
 30
0.0
 10
176.7423797501243
 20
735.7832509158828
 30
0.0
 10
178.7797707752574
 20
735.7832509158828
 30
0.0
 10
178.7797707752574
 20
735.7832509158828
 30
0.0
 10
178.7797707752574
 20
735.7832509158828
 30
0.0
 10
178.7797707752574
 20
734.0865761299822
 30
0.0
 10
178.7797707752574
 20
734.0865761299822
 30
0.0
 10
179.5417780400237
 20
735.2468530527699
 30
0.0
 10
181.0680947063085
 20
735.9536090354957
 30
0.0
 10
182.6795904324004
 20
735.9536090354957
 30
0.0
 10
184.0102254748029
 20
735.9536090354957
 30
0.0
 10
185.0277699189911
 20
735.6428205740365
 30
0.0
 10
186.0176887221643
 20
734.6529017708658
 30
0.0
  0
SPLINE
  5
D5
330
C2
100
AcDbEntity
  8
Layer 1
 62
    40
370
    13
100
AcDbSpline
210
0.0
220
0.0
230
1.0
 70
    11
 71
     3
 72
    47
 73
    43
 74
     0
 42
0.0000000001
 43
0.0000000001
 12
1.0
 22
0.0
 32
0.0
 13
1.0
 23
0.0
 33
0.0
 40
0.0
 40
0.0
 40
0.0
 40
0.0
 40
1.0
 40
1.0
 40
1.0
 40
2.0
 40
2.0
 40
2.0
 40
3.0
 40
3.0
 40
3.0
 40
4.0
 40
4.0
 40
4.0
 40
5.0
 40
5.0
 40
5.0
 40
6.0
 40
6.0
 40
6.0
 40
7.0
 40
7.0
 40
7.0
 40
8.0
 40
8.0
 40
8.0
 40
9.0
 40
9.0
 40
9.0
 40
10.0
 40
10.0
 40
10.0
 40
11.0
 40
11.0
 40
11.0
 40
12.0
 40
12.0
 40
12.0
 40
13.0
 40
13.0
 40
13.0
 40
14.0
 40
14.0
 40
14.0
 40
14.0
 10
198.294984018238
 20
731.3171056178533
 30
0.0
 10
198.294984018238
 20
731.3171056178533
 30
0.0
 10
198.294984018238
 20
721.8737406629484
 30
0.0
 10
198.294984018238
 20
721.8737406629484
 30
0.0
 10
198.294984018238
 20
721.8737406629484
 30
0.0
 10
196.259895129861
 20
721.8737406629484
 30
0.0
 10
196.259895129861
 20
721.8737406629484
 30
0.0
 10
196.259895129861
 20
721.8737406629484
 30
0.0
 10
196.259895129861
 20
723.202073568599
 30
0.0
 10
196.259895129861
 20
723.202073568599
 30
0.0
 10
195.1571716258609
 20
722.0993500646027
 30
0.0
 10
194.1096994039004
 20
721.7033825433323
 30
0.0
 10
192.2449686351385
 20
721.7033825433323
 30
0.0
 10
190.3226844475845
 20
721.7033825433323
 30
0.0
 10
189.2752122256243
 20
722.0440987825651
 30
0.0
 10
188.3152212002231
 20
722.9764641669485
 30
0.0
 10
187.6084652174919
 20
723.655594508657
 30
0.0
 10
187.2677489782629
 20
724.7007645938656
 30
0.0
 10
187.2677489782629
 20
725.8034880978619
 30
0.0
 10
187.2677489782629
 20
728.2644722852855
 30
0.0
 10
188.9943515419339
 20
729.8184145925827
 30
0.0
 10
192.1022361565393
 20
729.8184145925827
 30
0.0
 10
192.1022361565393
 20
729.8184145925827
 30
0.0
 10
196.259895129861
 20
729.8184145925827
 30
0.0
 10
196.259895129861
 20
729.8184145925827
 30
0.0
 10
196.259895129861
 20
729.8184145925827
 30
0.0
 10
196.259895129861
 20
731.1467474982333
 30
0.0
 10
196.259895129861
 20
731.1467474982333
 30
0.0
 10
196.259895129861
 20
733.1542107455956
 30
0.0
 10
195.2699763266881
 20
734.2016829675574
 30
0.0
 10
192.6961874384427
 20
734.2016829675574
 30
0.0
 10
190.9442613705039
 20
734.2016829675574
 30
0.0
 10
190.0395216271425
 20
733.7481620274993
 30
0.0
 10
189.1900331658169
 20
732.5901872414655
 30
0.0
 10
189.1900331658169
 20
732.5901872414655
 30
0.0
 10
187.8064489781268
 20
733.8609667283285
 30
0.0
 10
187.8064489781268
 20
733.8609667283285
 30
0.0
 10
189.0219771829499
 20
735.4724624544205
 30
0.0
 10
190.4354891484114
 20
735.9536090354957
 30
0.0
 10
192.7261152162147
 20
735.9536090354957
 30
0.0
 10
196.4855045315108
 20
735.9536090354957
 30
0.0
 10
198.294984018238
 20
734.3144876683828
 30
0.0
 10
198.294984018238
 20
731.3171056178533
 30
0.0
  0
SPLINE
  5
D6
330
C2
100
AcDbEntity
  8
Layer 1
 62
    40
370
    13
100
AcDbSpline
210
0.0
220
0.0
230
1.0
 70
    11
 71
     3
 72
    23
 73
    19
 74
     0
 42
0.0000000001
 43
0.0000000001
 12
1.0
 22
0.0
 32
0.0
 13
1.0
 23
0.0
 33
0.0
 40
0.0
 40
0.0
 40
0.0
 40
0.0
 40
1.0
 40
1.0
 40
1.0
 40
2.0
 40
2.0
 40
2.0
 40
3.0
 40
3.0
 40
3.0
 40
4.0
 40
4.0
 40
4.0
 40
5.0
 40
5.0
 40
5.0
 40
6.0
 40
6.0
 40
6.0
 40
6.0
 10
192.3853989769813
 20
728.2920979262992
 30
0.0
 10
190.2927566698131
 20
728.2920979262992
 30
0.0
 10
189.2475865846042
 20
727.4725372427446
 30
0.0
 10
189.2475865846042
 20
725.8311137388823
 30
0.0
 10
189.2475865846042
 20
724.2196180127903
 30
0.0
 10
190.2375053877771
 20
723.4576107480234
 30
0.0
 10
192.4705780367884
 20
723.4576107480234
 30
0.0
 10
193.6308549595757
 20
723.4576107480234
 30
0.0
 10
194.6483994037684
 20
723.5704154488521
 30
0.0
 10
195.5531391471294
 20
724.3899761324033
 30
0.0
 10
196.0342857282066
 20
724.8434970724613
 30
0.0
 10
196.259895129861
 20
725.633129978249
 30
0.0
 10
196.259895129861
 20
726.7934069010361
 30
0.0
 10
196.259895129861
 20
726.7934069010361
 30
0.0
 10
196.259895129861
 20
728.2920979262992
 30
0.0
 10
196.259895129861
 20
728.2920979262992
 30
0.0
 10
196.259895129861
 20
728.2920979262992
 30
0.0
 10
192.3853989769813
 20
728.2920979262992
 30
0.0
 10
192.3853989769813
 20
728.2920979262992
 30
0.0
  0
SPLINE
  5
D7
330
C2
100
AcDbEntity
  8
Layer 1
 62
    40
370
    13
100
AcDbSpline
210
0.0
220
0.0
230
1.0
 70
    11
 71
     3
 72
    41
 73
    37
 74
     0
 42
0.0000000001
 43
0.0000000001
 12
1.0
 22
0.0
 32
0.0
 13
1.0
 23
0.0
 33
0.0
 40
0.0
 40
0.0
 40
0.0
 40
0.0
 40
1.0
 40
1.0
 40
1.0
 40
2.0
 40
2.0
 40
2.0
 40
3.0
 40
3.0
 40
3.0
 40
4.0
 40
4.0
 40
4.0
 40
5.0
 40
5.0
 40
5.0
 40
6.0
 40
6.0
 40
6.0
 40
7.0
 40
7.0
 40
7.0
 40
8.0
 40
8.0
 40
8.0
 40
9.0
 40
9.0
 40
9.0
 40
10.0
 40
10.0
 40
10.0
 40
11.0
 40
11.0
 40
11.0
 40
12.0
 40
12.0
 40
12.0
 40
12.0
 10
213.2588729033874
 20
733.8908945060989
 30
0.0
 10
213.2588729033874
 20
733.8908945060989
 30
0.0
 10
211.8729865789456
 20
732.5901872414655
 30
0.0
 10
211.8729865789456
 20
732.5901872414655
 30
0.0
 10
210.8278164937374
 20
733.7481620274993
 30
0.0
 10
210.0082558101834
 20
734.1441295487698
 30
0.0
 10
208.6776207677813
 20
734.1441295487698
 30
0.0
 10
207.3216622211116
 20
734.1441295487698
 30
0.0
 10
206.1913130760956
 20
733.6077316856572
 30
0.0
 10
205.4546293155929
 20
732.5602594636952
 30
0.0
 10
204.8054267516535
 20
731.6555197203326
 30
0.0
 10
204.5498895722319
 20
730.5827239941032
 30
0.0
 10
204.5498895722319
 20
728.8284957894156
 30
0.0
 10
204.5498895722319
 20
727.076569721478
 30
0.0
 10
204.8054267516535
 20
726.0014718584952
 30
0.0
 10
205.4546293155929
 20
725.0967321151361
 30
0.0
 10
206.1913130760956
 20
724.0515620299275
 30
0.0
 10
207.3216622211116
 20
723.5128620300575
 30
0.0
 10
208.6776207677813
 20
723.5128620300575
 30
0.0
 10
210.0082558101834
 20
723.5128620300575
 30
0.0
 10
210.8278164937374
 20
723.9387573290984
 30
0.0
 10
211.8729865789456
 20
725.0967321151361
 30
0.0
 10
211.8729865789456
 20
725.0967321151361
 30
0.0
 10
213.2588729033874
 20
723.7683992094856
 30
0.0
 10
213.2588729033874
 20
723.7683992094856
 30
0.0
 10
211.8177352969103
 20
722.212154765428
 30
0.0
 10
210.5999049553349
 20
721.7033825433323
 30
0.0
 10
208.6776207677813
 20
721.7033825433323
 30
0.0
 10
205.171466495151
 20
721.7033825433323
 30
0.0
 10
202.5148006838504
 20
724.0791876709446
 30
0.0
 10
202.5148006838504
 20
728.8284957894156
 30
0.0
 10
202.5148006838504
 20
733.5778039078865
 30
0.0
 10
205.171466495151
 20
735.9536090354957
 30
0.0
 10
208.6776207677813
 20
735.9536090354957
 30
0.0
 10
210.5999049553349
 20
735.9536090354957
 30
0.0
 10
211.8177352969103
 20
735.4448368134032
 30
0.0
 10
213.2588729033874
 20
733.8908945060989
 30
0.0
  0
POLYLINE
  5
D8
330
C2
100
AcDbEntity
  8
Layer 1
 62
    40
370
    13
100
AcDb2dPolyline
 66
     1
 10
0.0
 20
0.0
 30
0.0
  0
VERTEX
  5
D9
330
D8
100
AcDbEntity
  8
Layer 1
 62
    40
370
    13
100
AcDbVertex
100
AcDb2dVertex
 10
219.1753643548998
 20
728.545332968974
 30
0.0
  0
VERTEX
  5
DA
330
D8
100
AcDbEntity
  8
Layer 1
 62
    40
370
    13
100
AcDbVertex
100
AcDb2dVertex
 10
225.4509891396536
 20
735.7832509158828
 30
0.0
  0
VERTEX
  5
DB
330
D8
100
AcDbEntity
  8
Layer 1
 62
    40
370
    13
100
AcDbVertex
100
AcDb2dVertex
 10
227.9948502501312
 20
735.7832509158828
 30
0.0
  0
VERTEX
  5
DC
330
D8
100
AcDbEntity
  8
Layer 1
 62
    40
370
    13
100
AcDbVertex
100
AcDb2dVertex
 10
223.2731677726784
 20
730.4676171565279
 30
0.0
  0
VERTEX
  5
DD
330
D8
100
AcDbEntity
  8
Layer 1
 62
    40
370
    13
100
AcDbVertex
100
AcDb2dVertex
 10
228.8144109336851
 20
721.8737406629484
 30
0.0
  0
VERTEX
  5
DE
330
D8
100
AcDbEntity
  8
Layer 1
 62
    40
370
    13
100
AcDbVertex
100
AcDb2dVertex
 10
226.2981754642273
 20
721.8737406629484
 30
0.0
  0
VERTEX
  5
DF
330
D8
100
AcDbEntity
  8
Layer 1
 62
    40
370
    13
100
AcDbVertex
100
AcDb2dVertex
 10
221.8895835849879
 20
728.998853909032
 30
0.0
  0
VERTEX
  5
E0
330
D8
100
AcDbEntity
  8
Layer 1
 62
    40
370
    13
100
AcDbVertex
100
AcDb2dVertex
 10
219.1753643548998
 20
725.8886671576699
 30
0.0
  0
VERTEX
  5
E1
330
D8
100
AcDbEntity
  8
Layer 1
 62
    40
370
    13
100
AcDbVertex
100
AcDb2dVertex
 10
219.1753643548998
 20
721.8737406629484
 30
0.0
  0
VERTEX
  5
E2
330
D8
100
AcDbEntity
  8
Layer 1
 62
    40
370
    13
100
AcDbVertex
100
AcDb2dVertex
 10
217.137973329767
 20
721.8737406629484
 30
0.0
  0
VERTEX
  5
E3
330
D8
100
AcDbEntity
  8
Layer 1
 62
    40
370
    13
100
AcDbVertex
100
AcDb2dVertex
 10
217.137973329767
 20
742.0036244186
 30
0.0
  0
VERTEX
  5
E4
330
D8
100
AcDbEntity
  8
Layer 1
 62
    40
370
    13
100
AcDbVertex
100
AcDb2dVertex
 10
219.1753643548998
 20
742.0036244186
 30
0.0
  0
VERTEX
  5
E5
330
D8
100
AcDbEntity
  8
Layer 1
 62
    40
370
    13
100
AcDbVertex
100
AcDb2dVertex
 10
219.1753643548998
 20
728.545332968974
 30
0.0
  0
SEQEND
  5
E6
330
D8
100
AcDbEntity
  8
Layer 1
 62
    40
370
    13
  0
SPLINE
  5
E7
330
C2
100
AcDbEntity
  8
Layer 1
 62
    40
370
    13
100
AcDbSpline
210
0.0
220
0.0
230
1.0
 70
    11
 71
     3
 72
    32
 73
    28
 74
     0
 42
0.0000000001
 43
0.0000000001
 12
1.0
 22
0.0
 32
0.0
 13
1.0
 23
0.0
 33
0.0
 40
0.0
 40
0.0
 40
0.0
 40
0.0
 40
1.0
 40
1.0
 40
1.0
 40
2.0
 40
2.0
 40
2.0
 40
3.0
 40
3.0
 40
3.0
 40
4.0
 40
4.0
 40
4.0
 40
5.0
 40
5.0
 40
5.0
 40
6.0
 40
6.0
 40
6.0
 40
7.0
 40
7.0
 40
7.0
 40
8.0
 40
8.0
 40
8.0
 40
9.0
 40
9.0
 40
9.0
 40
9.0
 10
241.8283899902613
 20
729.1968376696656
 30
0.0
 10
241.8283899902613
 20
729.1968376696656
 30
0.0
 10
241.8283899902613
 20
728.2920979262992
 30
0.0
 10
241.8283899902613
 20
728.2920979262992
 30
0.0
 10
241.8283899902613
 20
728.2920979262992
 30
0.0
 10
232.4425784541467
 20
728.2920979262992
 30
0.0
 10
232.4425784541467
 20
728.2920979262992
 30
0.0
 10
232.4425784541467
 20
725.2371624569782
 30
0.0
 10
233.856090419604
 20
723.4852363890403
 30
0.0
 10
236.5426840086762
 20
723.4852363890403
 30
0.0
 10
238.1541797347682
 20
723.4852363890403
 30
0.0
 10
239.0865451191534
 20
723.9663829701155
 30
0.0
 10
240.1892686231493
 20
725.0691064741153
 30
0.0
 10
240.1892686231493
 20
725.0691064741153
 30
0.0
 10
241.5751549475914
 20
723.8535782692938
 30
0.0
 10
241.5751549475914
 20
723.8535782692938
 30
0.0
 10
240.1616429821293
 20
722.440066303832
 30
0.0
 10
238.8333100764793
 20
721.7033825433323
 30
0.0
 10
236.4851305898886
 20
721.7033825433323
 30
0.0
 10
232.7809925566237
 20
721.7033825433323
 30
0.0
 10
230.4074895657655
 20
723.9088295513279
 30
0.0
 10
230.4074895657655
 20
728.8284957894156
 30
0.0
 10
230.4074895657655
 20
733.352194506229
 30
0.0
 10
232.5830087959933
 20
735.9536090354957
 30
0.0
 10
236.1190908463915
 20
735.9536090354957
 30
0.0
 10
239.7380498198448
 20
735.9536090354957
 30
0.0
 10
241.8283899902613
 20
733.3798201472497
 30
0.0
 10
241.8283899902613
 20
729.1968376696656
 30
0.0
  0
SPLINE
  5
E8
330
C2
100
AcDbEntity
  8
Layer 1
 62
    40
370
    13
100
AcDbSpline
210
0.0
220
0.0
230
1.0
 70
    11
 71
     3
 72
    20
 73
    16
 74
     0
 42
0.0000000001
 43
0.0000000001
 12
1.0
 22
0.0
 32
0.0
 13
1.0
 23
0.0
 33
0.0
 40
0.0
 40
0.0
 40
0.0
 40
0.0
 40
1.0
 40
1.0
 40
1.0
 40
2.0
 40
2.0
 40
2.0
 40
3.0
 40
3.0
 40
3.0
 40
4.0
 40
4.0
 40
4.0
 40
5.0
 40
5.0
 40
5.0
 40
5.0
 10
232.8661716164353
 20
732.1366663014074
 30
0.0
 10
232.5277575139541
 20
731.4022846776613
 30
0.0
 10
232.500131872934
 20
730.9487637376033
 30
0.0
 10
232.4425784541467
 20
729.8184145925827
 30
0.0
 10
232.4425784541467
 20
729.8184145925827
 30
0.0
 10
239.8209267429006
 20
729.8184145925827
 30
0.0
 10
239.8209267429006
 20
729.8184145925827
 30
0.0
 10
239.7380498198448
 20
730.9487637376033
 30
0.0
 10
239.7081220420731
 20
731.4022846776613
 30
0.0
 10
239.3697079395954
 20
732.1366663014074
 30
0.0
 10
238.7757566576917
 20
733.4097479250237
 30
0.0
 10
237.6154797349043
 20
734.2293086085747
 30
0.0
 10
236.1190908463915
 20
734.2293086085747
 30
0.0
 10
234.6203998211226
 20
734.2293086085747
 30
0.0
 10
233.4601228983349
 20
733.4097479250237
 30
0.0
 10
232.8661716164353
 20
732.1366663014074
 30
0.0
  0
SPLINE
  5
E9
330
C2
100
AcDbEntity
  8
Layer 1
 62
    40
370
    13
100
AcDbSpline
210
0.0
220
0.0
230
1.0
 70
    11
 71
     3
 72
    53
 73
    49
 74
     0
 42
0.0000000001
 43
0.0000000001
 12
1.0
 22
0.0
 32
0.0
 13
1.0
 23
0.0
 33
0.0
 40
0.0
 40
0.0
 40
0.0
 40
0.0
 40
1.0
 40
1.0
 40
1.0
 40
2.0
 40
2.0
 40
2.0
 40
3.0
 40
3.0
 40
3.0
 40
4.0
 40
4.0
 40
4.0
 40
5.0
 40
5.0
 40
5.0
 40
6.0
 40
6.0
 40
6.0
 40
7.0
 40
7.0
 40
7.0
 40
8.0
 40
8.0
 40
8.0
 40
9.0
 40
9.0
 40
9.0
 40
10.0
 40
10.0
 40
10.0
 40
11.0
 40
11.0
 40
11.0
 40
12.0
 40
12.0
 40
12.0
 40
13.0
 40
13.0
 40
13.0
 40
14.0
 40
14.0
 40
14.0
 40
15.0
 40
15.0
 40
15.0
 40
16.0
 40
16.0
 40
16.0
 40
16.0
 10
248.5391186210602
 20
735.7832509158828
 30
0.0
 10
248.5391186210602
 20
735.7832509158828
 30
0.0
 10
251.5065728938263
 20
735.7832509158828
 30
0.0
 10
251.5065728938263
 20
735.7832509158828
 30
0.0
 10
251.5065728938263
 20
735.7832509158828
 30
0.0
 10
251.5065728938263
 20
734.2293086085747
 30
0.0
 10
251.5065728938263
 20
734.2293086085747
 30
0.0
 10
251.5065728938263
 20
734.2293086085747
 30
0.0
 10
248.5391186210602
 20
734.2293086085747
 30
0.0
 10
248.5391186210602
 20
734.2293086085747
 30
0.0
 10
248.5391186210602
 20
734.2293086085747
 30
0.0
 10
248.5391186210602
 20
725.6630577560194
 30
0.0
 10
248.5391186210602
 20
725.6630577560194
 30
0.0
 10
248.5391186210602
 20
724.362350491386
 30
0.0
 10
249.1330699029636
 20
723.6256667308863
 30
0.0
 10
250.4337771675982
 20
723.6256667308863
 30
0.0
 10
250.4337771675982
 20
723.6256667308863
 30
0.0
 10
251.5065728938263
 20
723.6256667308863
 30
0.0
 10
251.5065728938263
 20
723.6256667308863
 30
0.0
 10
251.5065728938263
 20
723.6256667308863
 30
0.0
 10
251.5065728938263
 20
721.8737406629484
 30
0.0
 10
251.5065728938263
 20
721.8737406629484
 30
0.0
 10
251.5065728938263
 20
721.8737406629484
 30
0.0
 10
250.0654352873485
 20
721.8737406629484
 30
0.0
 10
250.0654352873485
 20
721.8737406629484
 30
0.0
 10
247.6896301597342
 20
721.8737406629484
 30
0.0
 10
246.5040297326829
 20
723.5427898078318
 30
0.0
 10
246.5040297326829
 20
725.6055043372282
 30
0.0
 10
246.5040297326829
 20
725.6055043372282
 30
0.0
 10
246.5040297326829
 20
734.2293086085747
 30
0.0
 10
246.5040297326829
 20
734.2293086085747
 30
0.0
 10
246.5040297326829
 20
734.2293086085747
 30
0.0
 10
244.749801527992
 20
734.2293086085747
 30
0.0
 10
244.749801527992
 20
734.2293086085747
 30
0.0
 10
244.749801527992
 20
734.2293086085747
 30
0.0
 10
244.749801527992
 20
735.7832509158828
 30
0.0
 10
244.749801527992
 20
735.7832509158828
 30
0.0
 10
244.749801527992
 20
735.7832509158828
 30
0.0
 10
246.5040297326829
 20
735.7832509158828
 30
0.0
 10
246.5040297326829
 20
735.7832509158828
 30
0.0
 10
246.5040297326829
 20
735.7832509158828
 30
0.0
 10
246.5040297326829
 20
740.0537145900249
 30
0.0
 10
246.5040297326829
 20
740.0537145900249
 30
0.0
 10
246.5040297326829
 20
740.0537145900249
 30
0.0
 10
248.5391186210602
 20
740.0537145900249
 30
0.0
 10
248.5391186210602
 20
740.0537145900249
 30
0.0
 10
248.5391186210602
 20
740.0537145900249
 30
0.0
 10
248.5391186210602
 20
735.7832509158828
 30
0.0
 10
248.5391186210602
 20
735.7832509158828
 30
0.0
  0
SPLINE
  5
EA
330
C2
100
AcDbEntity
  8
Layer 1
 62
    40
370
    13
100
AcDbSpline
210
0.0
220
0.0
230
1.0
 70
    11
 71
     3
 72
    53
 73
    49
 74
     0
 42
0.0000000001
 43
0.0000000001
 12
1.0
 22
0.0
 32
0.0
 13
1.0
 23
0.0
 33
0.0
 40
0.0
 40
0.0
 40
0.0
 40
0.0
 40
1.0
 40
1.0
 40
1.0
 40
2.0
 40
2.0
 40
2.0
 40
3.0
 40
3.0
 40
3.0
 40
4.0
 40
4.0
 40
4.0
 40
5.0
 40
5.0
 40
5.0
 40
6.0
 40
6.0
 40
6.0
 40
7.0
 40
7.0
 40
7.0
 40
8.0
 40
8.0
 40
8.0
 40
9.0
 40
9.0
 40
9.0
 40
10.0
 40
10.0
 40
10.0
 40
11.0
 40
11.0
 40
11.0
 40
12.0
 40
12.0
 40
12.0
 40
13.0
 40
13.0
 40
13.0
 40
14.0
 40
14.0
 40
14.0
 40
15.0
 40
15.0
 40
15.0
 40
16.0
 40
16.0
 40
16.0
 40
16.0
 10
264.856663916128
 20
734.4549180102323
 30
0.0
 10
264.856663916128
 20
734.4549180102323
 30
0.0
 10
263.5283310104774
 20
733.1265851045823
 30
0.0
 10
263.5283310104774
 20
733.1265851045823
 30
0.0
 10
262.5384122073052
 20
733.8908945060989
 30
0.0
 10
261.2653305836903
 20
734.2293086085747
 30
0.0
 10
259.8241929772125
 20
734.2293086085747
 30
0.0
 10
257.7891040888359
 20
734.2293086085747
 30
0.0
 10
256.7140062258562
 20
733.3798201472497
 30
0.0
 10
256.7140062258562
 20
731.9386825407742
 30
0.0
 10
256.7140062258562
 20
730.6955286949322
 30
0.0
 10
257.4783156273745
 20
730.0739517720114
 30
0.0
 10
259.2026160542932
 20
729.9035936523911
 30
0.0
 10
259.2026160542932
 20
729.9035936523911
 30
0.0
 10
261.3781352845172
 20
729.7056098917575
 30
0.0
 10
261.3781352845172
 20
729.7056098917575
 30
0.0
 10
263.8114938309197
 20
729.4800004901069
 30
0.0
 10
265.4782408390474
 20
728.5752607467408
 30
0.0
 10
265.4782408390474
 20
725.9462205764611
 30
0.0
 10
265.4782408390474
 20
723.2596269873898
 30
0.0
 10
263.217542549016
 20
721.7033825433323
 30
0.0
 10
259.8241929772125
 20
721.7033825433323
 30
0.0
 10
257.4483878496024
 20
721.7033825433323
 30
0.0
 10
255.6112827218558
 20
722.2420825431949
 30
0.0
 10
254.1125916965908
 20
723.7108457906946
 30
0.0
 10
254.1125916965908
 20
723.7108457906946
 30
0.0
 10
255.470852380013
 20
725.0691064741153
 30
0.0
 10
255.470852380013
 20
725.0691064741153
 30
0.0
 10
256.5436481062411
 20
723.9387573290984
 30
0.0
 10
258.0699647725256
 20
723.4576107480234
 30
0.0
 10
259.7965673361973
 20
723.4576107480234
 30
0.0
 10
262.1148190450159
 20
723.4576107480234
 30
0.0
 10
263.4984032327058
 20
724.2771714315779
 30
0.0
 10
263.4984032327058
 20
725.9162927986903
 30
0.0
 10
263.4984032327058
 20
727.1617487812861
 30
0.0
 10
262.8215750277465
 20
727.8109513452242
 30
0.0
 10
261.1801515238829
 20
727.9513816870699
 30
0.0
 10
261.1801515238829
 20
727.9513816870699
 30
0.0
 10
258.8918275928318
 20
728.1493654477032
 30
0.0
 10
258.8918275928318
 20
728.1493654477032
 30
0.0
 10
256.1776083627398
 20
728.3772769861075
 30
0.0
 10
254.7341686195143
 20
729.5651795499153
 30
0.0
 10
254.7341686195143
 20
731.8834312587366
 30
0.0
 10
254.7341686195143
 20
734.4272923692118
 30
0.0
 10
256.8544365676984
 20
735.9536090354957
 30
0.0
 10
259.8518186182324
 20
735.9536090354957
 30
0.0
 10
261.8592818655937
 20
735.9536090354957
 30
0.0
 10
263.5835822925131
 20
735.4724624544205
 30
0.0
 10
264.856663916128
 20
734.4549180102323
 30
0.0
  0
ENDBLK
  5
C5
330
C2
100
AcDbEntity
  8
0
100
AcDbBlockEnd
  0
BLOCK
  5
ED
330
EB
100
AcDbEntity
  8
0
100
AcDbBlockBegin
  2
block 5
 70
     0
 10
0.0
 20
0.0
 30
0.0
  3
block 5
  1

  0
SPLINE
  5
EF
330
EB
100
AcDbEntity
  8
Layer 1
 62
    40
370
    13
100
AcDbSpline
210
0.0
220
0.0
230
1.0
 70
    11
 71
     3
 72
    26
 73
    22
 74
     0
 42
0.0000000001
 43
0.0000000001
 12
1.0
 22
0.0
 32
0.0
 13
1.0
 23
0.0
 33
0.0
 40
0.0
 40
0.0
 40
0.0
 40
0.0
 40
1.0
 40
1.0
 40
1.0
 40
2.0
 40
2.0
 40
2.0
 40
3.0
 40
3.0
 40
3.0
 40
4.0
 40
4.0
 40
4.0
 40
5.0
 40
5.0
 40
5.0
 40
6.0
 40
6.0
 40
6.0
 40
7.0
 40
7.0
 40
7.0
 40
7.0
 10
29.11846380565441
 20
711.0572006143365
 30
0.0
 10
32.66140000268535
 20
711.0572006143365
 30
0.0
 10
35.11861435753979
 20
709.0285561378471
 30
0.0
 10
35.11861435753979
 20
705.6284191486798
 30
0.0
 10
35.11861435753979
 20
703.4853975020801
 30
0.0
 10
33.83290472244455
 20
701.799540026373
 30
0.0
 10
32.11862520898423
 20
701.1709823550892
 30
0.0
 10
34.06148680789088
 20
700.4566418062227
 30
0.0
 10
35.43297932056884
 20
698.7709565852899
 30
0.0
 10
35.43297932056884
 20
696.3421642681888
 30
0.0
 10
35.43297932056884
 20
692.65625660852
 30
0.0
 10
32.97576496571439
 20
690.7133950096134
 30
0.0
 10
29.37564018362831
 20
690.7133950096134
 30
0.0
 10
29.37564018362831
 20
690.7133950096134
 30
0.0
 10
21.46087781581534
 20
690.7133950096134
 30
0.0
 10
21.46087781581534
 20
690.7133950096134
 30
0.0
 10
21.46087781581534
 20
690.7133950096134
 30
0.0
 10
21.46087781581534
 20
711.0572006143365
 30
0.0
 10
21.46087781581534
 20
711.0572006143365
 30
0.0
 10
21.46087781581534
 20
711.0572006143365
 30
0.0
 10
29.11846380565441
 20
711.0572006143365
 30
0.0
 10
29.11846380565441
 20
711.0572006143365
 30
0.0
  0
SPLINE
  5
F0
330
EB
100
AcDbEntity
  8
Layer 1
 62
    40
370
    13
100
AcDbSpline
210
0.0
220
0.0
230
1.0
 70
    11
 71
     3
 72
    20
 73
    16
 74
     0
 42
0.0000000001
 43
0.0000000001
 12
1.0
 22
0.0
 32
0.0
 13
1.0
 23
0.0
 33
0.0
 40
0.0
 40
0.0
 40
0.0
 40
0.0
 40
1.0
 40
1.0
 40
1.0
 40
2.0
 40
2.0
 40
2.0
 40
3.0
 40
3.0
 40
3.0
 40
4.0
 40
4.0
 40
4.0
 40
5.0
 40
5.0
 40
5.0
 40
5.0
 10
23.63249375494257
 20
709.1141667606555
 30
0.0
 10
23.63249375494257
 20
709.1141667606555
 30
0.0
 10
23.63249375494257
 20
702.056716404347
 30
0.0
 10
23.63249375494257
 20
702.056716404347
 30
0.0
 10
23.63249375494257
 20
702.056716404347
 30
0.0
 10
28.94689805048897
 20
702.056716404347
 30
0.0
 10
28.94689805048897
 20
702.056716404347
 30
0.0
 10
31.20429686719893
 20
702.056716404347
 30
0.0
 10
32.94717067318682
 20
703.171032539051
 30
0.0
 10
32.94717067318682
 20
705.5998248561522
 30
0.0
 10
32.94717067318682
 20
708.0284449184791
 30
0.0
 10
31.20429686719893
 20
709.1141667606555
 30
0.0
 10
28.94689805048897
 20
709.1141667606555
 30
0.0
 10
28.94689805048897
 20
709.1141667606555
 30
0.0
 10
23.63249375494257
 20
709.1141667606555
 30
0.0
 10
23.63249375494257
 20
709.1141667606555
 30
0.0
  0
SPLINE
  5
F1
330
EB
100
AcDbEntity
  8
Layer 1
 62
    40
370
    13
100
AcDbSpline
210
0.0
220
0.0
230
1.0
 70
    11
 71
     3
 72
    20
 73
    16
 74
     0
 42
0.0000000001
 43
0.0000000001
 12
1.0
 22
0.0
 32
0.0
 13
1.0
 23
0.0
 33
0.0
 40
0.0
 40
0.0
 40
0.0
 40
0.0
 40
1.0
 40
1.0
 40
1.0
 40
2.0
 40
2.0
 40
2.0
 40
3.0
 40
3.0
 40
3.0
 40
4.0
 40
4.0
 40
4.0
 40
5.0
 40
5.0
 40
5.0
 40
5.0
 10
23.63249375494257
 20
700.1138548054403
 30
0.0
 10
23.63249375494257
 20
700.1138548054403
 30
0.0
 10
23.63249375494257
 20
692.65625660852
 30
0.0
 10
23.63249375494257
 20
692.65625660852
 30
0.0
 10
23.63249375494257
 20
692.65625660852
 30
0.0
 10
29.1754801359353
 20
692.65625660852
 30
0.0
 10
29.1754801359353
 20
692.65625660852
 30
0.0
 10
31.68988307584489
 20
692.65625660852
 30
0.0
 10
33.2613633814416
 20
694.1135319987807
 30
0.0
 10
33.2613633814416
 20
696.399352853244
 30
0.0
 10
33.2613633814416
 20
698.6851737077072
 30
0.0
 10
31.68988307584489
 20
700.1138548054403
 30
0.0
 10
29.1754801359353
 20
700.1138548054403
 30
0.0
 10
29.1754801359353
 20
700.1138548054403
 30
0.0
 10
23.63249375494257
 20
700.1138548054403
 30
0.0
 10
23.63249375494257
 20
700.1138548054403
 30
0.0
  0
SPLINE
  5
F2
330
EB
100
AcDbEntity
  8
Layer 1
 62
    40
370
    13
100
AcDbSpline
210
0.0
220
0.0
230
1.0
 70
    11
 71
     3
 72
    65
 73
    61
 74
     0
 42
0.0000000001
 43
0.0000000001
 12
1.0
 22
0.0
 32
0.0
 13
1.0
 23
0.0
 33
0.0
 40
0.0
 40
0.0
 40
0.0
 40
0.0
 40
1.0
 40
1.0
 40
1.0
 40
2.0
 40
2.0
 40
2.0
 40
3.0
 40
3.0
 40
3.0
 40
4.0
 40
4.0
 40
4.0
 40
5.0
 40
5.0
 40
5.0
 40
6.0
 40
6.0
 40
6.0
 40
7.0
 40
7.0
 40
7.0
 40
8.0
 40
8.0
 40
8.0
 40
9.0
 40
9.0
 40
9.0
 40
10.0
 40
10.0
 40
10.0
 40
11.0
 40
11.0
 40
11.0
 40
12.0
 40
12.0
 40
12.0
 40
13.0
 40
13.0
 40
13.0
 40
14.0
 40
14.0
 40
14.0
 40
15.0
 40
15.0
 40
15.0
 40
16.0
 40
16.0
 40
16.0
 40
17.0
 40
17.0
 40
17.0
 40
18.0
 40
18.0
 40
18.0
 40
19.0
 40
19.0
 40
19.0
 40
20.0
 40
20.0
 40
20.0
 40
20.0
 10
51.77823485033669
 20
708.9999618453195
 30
0.0
 10
51.77823485033669
 20
708.9999618453195
 30
0.0
 10
50.37832029990543
 20
707.599875040114
 30
0.0
 10
50.37832029990543
 20
707.599875040114
 30
0.0
 10
49.14962699509107
 20
708.7713797598732
 30
0.0
 10
47.74954018988554
 20
709.3713431386294
 30
0.0
 10
45.63511283581344
 20
709.3713431386294
 30
0.0
 10
42.89212781045752
 20
709.3713431386294
 30
0.0
 10
41.32064750486082
 20
707.8570514180878
 30
0.0
 10
41.32064750486082
 20
705.5712305636246
 30
0.0
 10
41.32064750486082
 20
704.5711193442565
 30
0.0
 10
41.60641817536229
 20
703.742573880054
 30
0.0
 10
42.23497584664612
 20
703.1996268315786
 30
0.0
 10
42.86353351792995
 20
702.6568520378775
 30
0.0
 10
43.8350504447704
 20
702.3138927823209
 30
0.0
 10
44.89235024919358
 20
702.1424992819296
 30
0.0
 10
44.89235024919358
 20
702.1424992819296
 30
0.0
 10
47.2637817264653
 20
701.7711179886197
 30
0.0
 10
47.2637817264653
 20
701.7711179886197
 30
0.0
 10
49.14962699509107
 20
701.4853473181183
 30
0.0
 10
50.0353610443488
 20
701.1423880625616
 30
0.0
 10
50.94968938613411
 20
700.3138425983591
 30
0.0
 10
52.03541122831059
 20
699.3709199640462
 30
0.0
 10
52.66414115436869
 20
697.9994274513682
 30
0.0
 10
52.66414115436869
 20
696.3135699756613
 30
0.0
 10
52.66414115436869
 20
692.7420394861027
 30
0.0
 10
49.89256183648519
 20
690.5420015092221
 30
0.0
 10
45.63511283581344
 20
690.5420015092221
 30
0.0
 10
42.60652939473032
 20
690.5420015092221
 30
0.0
 10
40.57771266346668
 20
691.3133583883696
 30
0.0
 10
38.69203964961519
 20
693.2277979495229
 30
0.0
 10
38.69203964961519
 20
693.2277979495229
 30
0.0
 10
40.1491427851016
 20
694.6850733397836
 30
0.0
 10
40.1491427851016
 20
694.6850733397836
 30
0.0
 10
41.83500026080861
 20
692.9992158640766
 30
0.0
 10
43.40648056640533
 20
692.4848631081288
 30
0.0
 10
45.6923014208686
 20
692.4848631081288
 30
0.0
 10
48.69246282419842
 20
692.4848631081288
 30
0.0
 10
50.52111950776903
 20
693.8563556208068
 30
0.0
 10
50.52111950776903
 20
696.2565536453803
 30
0.0
 10
50.52111950776903
 20
697.3422754875568
 30
0.0
 10
50.20675454473998
 20
698.199415244287
 30
0.0
 10
49.521008288401
 20
698.7995508778175
 30
0.0
 10
48.89245061711717
 20
699.3709199640462
 30
0.0
 10
48.32090927611422
 20
699.570907756965
 30
0.0
 10
46.8638061406278
 20
699.7994898424113
 30
0.0
 10
46.8638061406278
 20
699.7994898424113
 30
0.0
 10
44.49220240858181
 20
700.1424490979679
 30
0.0
 10
44.49220240858181
 20
700.1424490979679
 30
0.0
 10
42.89212781045752
 20
700.3996254759418
 30
0.0
 10
41.69220105294501
 20
700.8852116845877
 30
0.0
 10
40.7778727111597
 20
701.685335111037
 30
0.0
 10
39.7491671992641
 20
702.5996634528224
 30
0.0
 10
39.20622015078872
 20
703.8569510501643
 30
0.0
 10
39.20622015078872
 20
705.5140419785695
 30
0.0
 10
39.20622015078872
 20
708.9713675527919
 30
0.0
 10
41.69220105294501
 20
711.2285941147276
 30
0.0
 10
45.72089571339617
 20
711.2285941147276
 30
0.0
 10
48.32090927611422
 20
711.2285941147276
 30
0.0
 10
50.0353610443488
 20
710.5428478583887
 30
0.0
 10
51.77823485033669
 20
708.9999618453195
 30
0.0
  0
SPLINE
  5
F3
330
EB
100
AcDbEntity
  8
Layer 1
 62
    40
370
    13
100
AcDbSpline
210
0.0
220
0.0
230
1.0
 70
    11
 71
     3
 72
    29
 73
    25
 74
     0
 42
0.0000000001
 43
0.0000000001
 12
1.0
 22
0.0
 32
0.0
 13
1.0
 23
0.0
 33
0.0
 40
0.0
 40
0.0
 40
0.0
 40
0.0
 40
1.0
 40
1.0
 40
1.0
 40
2.0
 40
2.0
 40
2.0
 40
3.0
 40
3.0
 40
3.0
 40
4.0
 40
4.0
 40
4.0
 40
5.0
 40
5.0
 40
5.0
 40
6.0
 40
6.0
 40
6.0
 40
7.0
 40
7.0
 40
7.0
 40
8.0
 40
8.0
 40
8.0
 40
8.0
 10
55.7226969261735
 20
696.3135699756613
 30
0.0
 10
55.7226969261735
 20
698.6851737077072
 30
0.0
 10
57.06559514632388
 20
700.2852483058315
 30
0.0
 10
58.7798746597842
 20
701.2567652326719
 30
0.0
 10
57.17980006165991
 20
702.1710935744572
 30
0.0
 10
56.122672512011
 20
703.6567910024712
 30
0.0
 10
56.122672512011
 20
705.7712183565434
 30
0.0
 10
56.122672512011
 20
708.9427732602643
 30
0.0
 10
58.49427624405699
 20
711.2285941147276
 30
0.0
 10
61.72284747805887
 20
711.2285941147276
 30
0.0
 10
64.95159096683503
 20
711.2285941147276
 30
0.0
 10
67.32319469888101
 20
708.9427732602643
 30
0.0
 10
67.32319469888101
 20
705.7712183565434
 30
0.0
 10
67.32319469888101
 20
703.6567910024712
 30
0.0
 10
66.2944891869854
 20
702.1710935744572
 30
0.0
 10
64.69441458886112
 20
701.2567652326719
 30
0.0
 10
66.4088663570957
 20
700.2852483058315
 30
0.0
 10
67.72317028471852
 20
698.6851737077072
 30
0.0
 10
67.72317028471852
 20
696.3135699756613
 30
0.0
 10
67.72317028471852
 20
692.8850109487406
 30
0.0
 10
65.09456242947289
 20
690.5420015092221
 30
0.0
 10
61.72284747805887
 20
690.5420015092221
 30
0.0
 10
58.35130478141912
 20
690.5420015092221
 30
0.0
 10
55.7226969261735
 20
692.8850109487406
 30
0.0
 10
55.7226969261735
 20
696.3135699756613
 30
0.0
  0
SPLINE
  5
F4
330
EB
100
AcDbEntity
  8
Layer 1
 62
    40
370
    13
100
AcDbSpline
210
0.0
220
0.0
230
1.0
 70
    11
 71
     3
 72
    17
 73
    13
 74
     0
 42
0.0000000001
 43
0.0000000001
 12
1.0
 22
0.0
 32
0.0
 13
1.0
 23
0.0
 33
0.0
 40
0.0
 40
0.0
 40
0.0
 40
0.0
 40
1.0
 40
1.0
 40
1.0
 40
2.0
 40
2.0
 40
2.0
 40
3.0
 40
3.0
 40
3.0
 40
4.0
 40
4.0
 40
4.0
 40
4.0
 10
65.66593151570157
 20
696.3421642681888
 30
0.0
 10
65.66593151570157
 20
698.5993908301244
 30
0.0
 10
63.95165200224125
 20
700.3138425983591
 30
0.0
 10
61.72284747805887
 20
700.3138425983591
 30
0.0
 10
59.49421520865076
 20
700.3138425983591
 30
0.0
 10
57.77993569519044
 20
698.5993908301244
 30
0.0
 10
57.77993569519044
 20
696.3421642681888
 30
0.0
 10
57.77993569519044
 20
694.0849377062531
 30
0.0
 10
59.49421520865076
 20
692.3706581927928
 30
0.0
 10
61.72284747805887
 20
692.3706581927928
 30
0.0
 10
63.95165200224125
 20
692.3706581927928
 30
0.0
 10
65.66593151570157
 20
694.0849377062531
 30
0.0
 10
65.66593151570157
 20
696.3421642681888
 30
0.0
  0
SPLINE
  5
F5
330
EB
100
AcDbEntity
  8
Layer 1
 62
    40
370
    13
100
AcDbSpline
210
0.0
220
0.0
230
1.0
 70
    11
 71
     3
 72
    17
 73
    13
 74
     0
 42
0.0000000001
 43
0.0000000001
 12
1.0
 22
0.0
 32
0.0
 13
1.0
 23
0.0
 33
0.0
 40
0.0
 40
0.0
 40
0.0
 40
0.0
 40
1.0
 40
1.0
 40
1.0
 40
2.0
 40
2.0
 40
2.0
 40
3.0
 40
3.0
 40
3.0
 40
4.0
 40
4.0
 40
4.0
 40
4.0
 10
65.26595592986406
 20
705.7426240640158
 30
0.0
 10
65.26595592986406
 20
707.8570514180878
 30
0.0
 10
63.80868053960339
 20
709.399937431157
 30
0.0
 10
61.72284747805887
 20
709.399937431157
 30
0.0
 10
59.63701441651436
 20
709.399937431157
 30
0.0
 10
58.17991128102794
 20
707.8570514180878
 30
0.0
 10
58.17991128102794
 20
705.7426240640158
 30
0.0
 10
58.17991128102794
 20
703.5997746721904
 30
0.0
 10
59.63701441651436
 20
702.1139049894022
 30
0.0
 10
61.72284747805887
 20
702.1139049894022
 30
0.0
 10
63.80868053960339
 20
702.1139049894022
 30
0.0
 10
65.26595592986406
 20
703.5997746721904
 30
0.0
 10
65.26595592986406
 20
705.7426240640158
 30
0.0
  0
SPLINE
  5
F6
330
EB
100
AcDbEntity
  8
Layer 1
 62
    40
370
    13
100
AcDbSpline
210
0.0
220
0.0
230
1.0
 70
    11
 71
     3
 72
    62
 73
    58
 74
     0
 42
0.0000000001
 43
0.0000000001
 12
1.0
 22
0.0
 32
0.0
 13
1.0
 23
0.0
 33
0.0
 40
0.0
 40
0.0
 40
0.0
 40
0.0
 40
1.0
 40
1.0
 40
1.0
 40
2.0
 40
2.0
 40
2.0
 40
3.0
 40
3.0
 40
3.0
 40
4.0
 40
4.0
 40
4.0
 40
5.0
 40
5.0
 40
5.0
 40
6.0
 40
6.0
 40
6.0
 40
7.0
 40
7.0
 40
7.0
 40
8.0
 40
8.0
 40
8.0
 40
9.0
 40
9.0
 40
9.0
 40
10.0
 40
10.0
 40
10.0
 40
11.0
 40
11.0
 40
11.0
 40
12.0
 40
12.0
 40
12.0
 40
13.0
 40
13.0
 40
13.0
 40
14.0
 40
14.0
 40
14.0
 40
15.0
 40
15.0
 40
15.0
 40
16.0
 40
16.0
 40
16.0
 40
17.0
 40
17.0
 40
17.0
 40
18.0
 40
18.0
 40
18.0
 40
19.0
 40
19.0
 40
19.0
 40
19.0
 10
72.61003823054541
 20
691.9991046447086
 30
0.0
 10
71.72430418128768
 20
692.913432986494
 30
0.0
 10
71.2957343029226
 20
694.0849377062531
 30
0.0
 10
71.18135713281231
 20
695.5422130965138
 30
0.0
 10
71.18135713281231
 20
695.5422130965138
 30
0.0
 10
73.23859590182924
 20
695.5422130965138
 30
0.0
 10
73.23859590182924
 20
695.5422130965138
 30
0.0
 10
73.49577227980315
 20
693.5135686200244
 30
0.0
 10
74.55289982945206
 20
692.3706581927928
 30
0.0
 10
76.69592147605172
 20
692.3706581927928
 30
0.0
 10
77.69603269541975
 20
692.3706581927928
 30
0.0
 10
78.61036103720505
 20
692.7134451935751
 30
0.0
 10
79.21032441596131
 20
693.3135808271056
 30
0.0
 10
80.26762422038449
 20
694.3707083767546
 30
0.0
 10
80.32464055066536
 20
695.9993772674064
 30
0.0
 10
80.32464055066536
 20
697.4566526576671
 30
0.0
 10
80.32464055066536
 20
699.9424613050492
 30
0.0
 10
79.83888208724514
 20
702.3710813673761
 30
0.0
 10
76.89590926897047
 20
702.3710813673761
 30
0.0
 10
75.124441170455
 20
702.3710813673761
 30
0.0
 10
73.92434215816823
 20
701.571130195701
 30
0.0
 10
73.52436657233072
 20
700.3710311834142
 30
0.0
 10
73.52436657233072
 20
700.3710311834142
 30
0.0
 10
71.66711559623253
 20
700.3710311834142
 30
0.0
 10
71.66711559623253
 20
700.3710311834142
 30
0.0
 10
71.66711559623253
 20
700.3710311834142
 30
0.0
 10
71.66711559623253
 20
711.0572006143365
 30
0.0
 10
71.66711559623253
 20
711.0572006143365
 30
0.0
 10
71.66711559623253
 20
711.0572006143365
 30
0.0
 10
81.95330944131723
 20
711.0572006143365
 30
0.0
 10
81.95330944131723
 20
711.0572006143365
 30
0.0
 10
81.95330944131723
 20
711.0572006143365
 30
0.0
 10
81.95330944131723
 20
709.2285439307658
 30
0.0
 10
81.95330944131723
 20
709.2285439307658
 30
0.0
 10
81.95330944131723
 20
709.2285439307658
 30
0.0
 10
73.52436657233072
 20
709.2285439307658
 30
0.0
 10
73.52436657233072
 20
709.2285439307658
 30
0.0
 10
73.52436657233072
 20
709.2285439307658
 30
0.0
 10
73.52436657233072
 20
702.7710569532135
 30
0.0
 10
73.52436657233072
 20
702.7710569532135
 30
0.0
 10
74.32448999878
 20
703.6567910024712
 30
0.0
 10
75.58160534134765
 20
704.171143758419
 30
0.0
 10
77.18167993947195
 20
704.171143758419
 30
0.0
 10
78.69597166001351
 20
704.171143758419
 30
0.0
 10
79.8960706723003
 20
703.6853852949988
 30
0.0
 10
80.69619409874957
 20
702.8854341233238
 30
0.0
 10
82.18189152676356
 20
701.3995644405355
 30
0.0
 10
82.38187931968231
 20
699.3709199640462
 30
0.0
 10
82.38187931968231
 20
697.4566526576671
 30
0.0
 10
82.38187931968231
 20
695.4278359264035
 30
0.0
 10
82.21048581929114
 20
693.5135686200244
 30
0.0
 10
80.75321042903045
 20
692.0562932297637
 30
0.0
 10
79.81046004949184
 20
691.1133705954509
 30
0.0
 10
78.49598386709476
 20
690.5420015092221
 30
0.0
 10
76.69592147605172
 20
690.5420015092221
 30
0.0
 10
74.92445337753625
 20
690.5420015092221
 30
0.0
 10
73.49577227980315
 20
691.1133705954509
 30
0.0
 10
72.61003823054541
 20
691.9991046447086
 30
0.0
  0
ENDBLK
  5
EE
330
EB
100
AcDbEntity
  8
0
100
AcDbBlockEnd
  0
BLOCK
  5
F9
330
F7
100
AcDbEntity
  8
0
100
AcDbBlockBegin
  2
block 6
 70
     0
 10
0.0
 20
0.0
 30
0.0
  3
block 6
  1

  0
POLYLINE
  5
FB
330
F7
100
AcDbEntity
  8
Layer 1
 62
    40
370
    13
100
AcDb2dPolyline
 66
     1
 10
0.0
 20
0.0
 30
0.0
  0
VERTEX
  5
FC
330
FB
100
AcDbEntity
  8
Layer 1
 62
    40
370
    13
100
AcDbVertex
100
AcDb2dVertex
 10
68.8547193131119
 20
589.8901844897639
 30
0.0
  0
VERTEX
  5
FD
330
FB
100
AcDbEntity
  8
Layer 1
 62
    40
370
    13
100
AcDbVertex
100
AcDb2dVertex
 10
18.85445517901908
 20
589.8901844897639
 30
0.0
  0
VERTEX
  5
FE
330
FB
100
AcDbEntity
  8
Layer 1
 62
    40
370
    13
100
AcDbVertex
100
AcDb2dVertex
 10
18.85445517901908
 20
274.8903549583247
 30
0.0
  0
VERTEX
  5
FF
330
FB
100
AcDbEntity
  8
Layer 1
 62
    40
370
    13
100
AcDbVertex
100
AcDb2dVertex
 10
68.8547193131119
 20
274.8903549583247
 30
0.0
  0
VERTEX
  5
100
330
FB
100
AcDbEntity
  8
Layer 1
 62
    40
370
    13
100
AcDbVertex
100
AcDb2dVertex
 10
68.8547193131119
 20
589.8901844897639
 30
0.0
  0
SEQEND
  5
101
330
FB
100
AcDbEntity
  8
Layer 1
 62
    40
370
    13
  0
POLYLINE
  5
102
330
F7
100
AcDbEntity
  8
Layer 1
 62
    40
370
    13
100
AcDb2dPolyline
 66
     1
 10
0.0
 20
0.0
 30
0.0
  0
VERTEX
  5
103
330
102
100
AcDbEntity
  8
Layer 1
 62
    40
370
    13
100
AcDbVertex
100
AcDb2dVertex
 10
50.8545906351575
 20
347.8903134022601
 30
0.0
  0
VERTEX
  5
104
330
102
100
AcDbEntity
  8
Layer 1
 62
    40
370
    13
100
AcDbVertex
100
AcDb2dVertex
 10
50.74204367202374
 20
349.1401940443087
 30
0.0
  0
VERTEX
  5
105
330
102
100
AcDbEntity
  8
Layer 1
 62
    40
370
    13
100
AcDbVertex
100
AcDb2dVertex
 10
50.40832157873695
 20
350.3498747284139
 30
0.0
  0
VERTEX
  5
106
330
102
100
AcDbEntity
  8
Layer 1
 62
    40
370
    13
100
AcDbVertex
100
AcDb2dVertex
 10
49.86363045067217
 20
351.4805335348261
 30
0.0
  0
VERTEX
  5
107
330
102
100
AcDbEntity
  8
Layer 1
 62
    40
370
    13
100
AcDbVertex
100
AcDb2dVertex
 10
49.12597091173983
 20
352.4958247061759
 30
0.0
  0
VERTEX
  5
108
330
102
100
AcDbEntity
  8
Layer 1
 62
    40
370
    13
100
AcDbVertex
100
AcDb2dVertex
 10
48.21898492970746
 20
353.3629552398133
 30
0.0
  0
VERTEX
  5
109
330
102
100
AcDbEntity
  8
Layer 1
 62
    40
370
    13
100
AcDbVertex
100
AcDb2dVertex
 10
47.17158977480437
 20
354.054385903703
 30
0.0
  0
VERTEX
  5
10A
330
102
100
AcDbEntity
  8
Layer 1
 62
    40
370
    13
100
AcDbVertex
100
AcDb2dVertex
 10
46.01763351017316
 20
354.5475728542633
 30
0.0
  0
VERTEX
  5
10B
330
102
100
AcDbEntity
  8
Layer 1
 62
    40
370
    13
100
AcDbVertex
100
AcDb2dVertex
 10
44.7942155078206
 20
354.826970098117
 30
0.0
  0
VERTEX
  5
10C
330
102
100
AcDbEntity
  8
Layer 1
 62
    40
370
    13
100
AcDbVertex
100
AcDb2dVertex
 10
43.54043760150427
 20
354.8830605589863
 30
0.0
  0
VERTEX
  5
10D
330
102
100
AcDbEntity
  8
Layer 1
 62
    40
370
    13
100
AcDbVertex
100
AcDb2dVertex
 10
42.29688732240977
 20
354.7147891763786
 30
0.0
  0
VERTEX
  5
10E
330
102
100
AcDbEntity
  8
Layer 1
 62
    40
370
    13
100
AcDbVertex
100
AcDb2dVertex
 10
41.10344165077888
 20
354.3267422336588
 30
0.0
  0
VERTEX
  5
10F
330
102
100
AcDbEntity
  8
Layer 1
 62
    40
370
    13
100
AcDbVertex
100
AcDb2dVertex
 10
39.99819042357039
 20
353.7323125395257
 30
0.0
  0
VERTEX
  5
110
330
102
100
AcDbEntity
  8
Layer 1
 62
    40
370
    13
100
AcDbVertex
100
AcDb2dVertex
 10
39.01711335675836
 20
352.9498452274383
 30
0.0
  0
VERTEX
  5
111
330
102
100
AcDbEntity
  8
Layer 1
 62
    40
370
    13
100
AcDbVertex
100
AcDb2dVertex
 10
38.19162541479893
 20
352.0047478766004
 30
0.0
  0
VERTEX
  5
112
330
102
100
AcDbEntity
  8
Layer 1
 62
    40
370
    13
100
AcDbVertex
100
AcDb2dVertex
 10
37.54780166414609
 20
350.9273803909756
 30
0.0
  0
VERTEX
  5
113
330
102
100
AcDbEntity
  8
Layer 1
 62
    40
370
    13
100
AcDbVertex
100
AcDb2dVertex
 10
37.1068294420341
 20
349.7522798528037
 30
0.0
  0
VERTEX
  5
114
330
102
100
AcDbEntity
  8
Layer 1
 62
    40
370
    13
100
AcDbVertex
100
AcDb2dVertex
 10
36.88281210810574
 20
348.5175576308902
 30
0.0
  0
VERTEX
  5
115
330
102
100
AcDbEntity
  8
Layer 1
 62
    40
370
    13
100
AcDbVertex
100
AcDb2dVertex
 10
36.88281210810574
 20
347.2627246640815
 30
0.0
  0
VERTEX
  5
116
330
102
100
AcDbEntity
  8
Layer 1
 62
    40
370
    13
100
AcDbVertex
100
AcDb2dVertex
 10
37.1068294420341
 20
346.0280024421679
 30
0.0
  0
VERTEX
  5
117
330
102
100
AcDbEntity
  8
Layer 1
 62
    40
370
    13
100
AcDbVertex
100
AcDb2dVertex
 10
37.54780166414609
 20
344.852901903996
 30
0.0
  0
VERTEX
  5
118
330
102
100
AcDbEntity
  8
Layer 1
 62
    40
370
    13
100
AcDbVertex
100
AcDb2dVertex
 10
38.19162541479893
 20
343.7755128865244
 30
0.0
  0
VERTEX
  5
119
330
102
100
AcDbEntity
  8
Layer 1
 62
    40
370
    13
100
AcDbVertex
100
AcDb2dVertex
 10
39.01711335675836
 20
342.830760045235
 30
0.0
  0
VERTEX
  5
11A
330
102
100
AcDbEntity
  8
Layer 1
 62
    40
370
    13
100
AcDbVertex
100
AcDb2dVertex
 10
39.99819042357039
 20
342.0483142649944
 30
0.0
  0
VERTEX
  5
11B
330
102
100
AcDbEntity
  8
Layer 1
 62
    40
370
    13
100
AcDbVertex
100
AcDb2dVertex
 10
41.10344165077888
 20
341.4535185294661
 30
0.0
  0
VERTEX
  5
11C
330
102
100
AcDbEntity
  8
Layer 1
 62
    40
370
    13
100
AcDbVertex
100
AcDb2dVertex
 10
42.29688732240977
 20
341.0658160962947
 30
0.0
  0
VERTEX
  5
11D
330
102
100
AcDbEntity
  8
Layer 1
 62
    40
370
    13
100
AcDbVertex
100
AcDb2dVertex
 10
43.54043760150427
 20
340.8972002041385
 30
0.0
  0
VERTEX
  5
11E
330
102
100
AcDbEntity
  8
Layer 1
 62
    40
370
    13
100
AcDbVertex
100
AcDb2dVertex
 10
44.7942155078206
 20
340.9536351745563
 30
0.0
  0
VERTEX
  5
11F
330
102
100
AcDbEntity
  8
Layer 1
 62
    40
370
    13
100
AcDbVertex
100
AcDb2dVertex
 10
46.01763351017316
 20
341.2326879088615
 30
0.0
  0
VERTEX
  5
120
330
102
100
AcDbEntity
  8
Layer 1
 62
    40
370
    13
100
AcDbVertex
100
AcDb2dVertex
 10
47.17158977480437
 20
341.7258748594218
 30
0.0
  0
VERTEX
  5
121
330
102
100
AcDbEntity
  8
Layer 1
 62
    40
370
    13
100
AcDbVertex
100
AcDb2dVertex
 10
48.21898492970746
 20
342.4173055233115
 30
0.0
  0
VERTEX
  5
122
330
102
100
AcDbEntity
  8
Layer 1
 62
    40
370
    13
100
AcDbVertex
100
AcDb2dVertex
 10
49.12597091173983
 20
343.2844360569489
 30
0.0
  0
VERTEX
  5
123
330
102
100
AcDbEntity
  8
Layer 1
 62
    40
370
    13
100
AcDbVertex
100
AcDb2dVertex
 10
49.86363045067217
 20
344.2997272282988
 30
0.0
  0
VERTEX
  5
124
330
102
100
AcDbEntity
  8
Layer 1
 62
    40
370
    13
100
AcDbVertex
100
AcDb2dVertex
 10
50.40832157873695
 20
345.430386034711
 30
0.0
  0
VERTEX
  5
125
330
102
100
AcDbEntity
  8
Layer 1
 62
    40
370
    13
100
AcDbVertex
100
AcDb2dVertex
 10
50.74204367202374
 20
346.6404112283647
 30
0.0
  0
VERTEX
  5
126
330
102
100
AcDbEntity
  8
Layer 1
 62
    40
370
    13
100
AcDbVertex
100
AcDb2dVertex
 10
50.8545906351575
 20
347.8903134022601
 30
0.0
  0
SEQEND
  5
127
330
102
100
AcDbEntity
  8
Layer 1
 62
    40
370
    13
  0
POLYLINE
  5
128
330
F7
100
AcDbEntity
  8
Layer 1
 62
    40
370
    13
100
AcDb2dPolyline
 66
     1
 10
0.0
 20
0.0
 30
0.0
  0
VERTEX
  5
129
330
128
100
AcDbEntity
  8
Layer 1
 62
    40
370
    13
100
AcDbVertex
100
AcDb2dVertex
 10
50.8545906351575
 20
516.8902475776754
 30
0.0
  0
VERTEX
  5
12A
330
128
100
AcDbEntity
  8
Layer 1
 62
    40
370
    13
100
AcDbVertex
100
AcDb2dVertex
 10
50.74204367202374
 20
518.140128219724
 30
0.0
  0
VERTEX
  5
12B
330
128
100
AcDbEntity
  8
Layer 1
 62
    40
370
    13
100
AcDbVertex
100
AcDb2dVertex
 10
50.40832157873695
 20
519.3498304356759
 30
0.0
  0
VERTEX
  5
12C
330
128
100
AcDbEntity
  8
Layer 1
 62
    40
370
    13
100
AcDbVertex
100
AcDb2dVertex
 10
49.86363045067217
 20
520.4804677102413
 30
0.0
  0
VERTEX
  5
12D
330
128
100
AcDbEntity
  8
Layer 1
 62
    40
370
    13
100
AcDbVertex
100
AcDb2dVertex
 10
49.12597091173983
 20
521.4957804134381
 30
0.0
  0
VERTEX
  5
12E
330
128
100
AcDbEntity
  8
Layer 1
 62
    40
370
    13
100
AcDbVertex
100
AcDb2dVertex
 10
48.21898492970746
 20
522.3628678833818
 30
0.0
  0
VERTEX
  5
12F
330
128
100
AcDbEntity
  8
Layer 1
 62
    40
370
    13
100
AcDbVertex
100
AcDb2dVertex
 10
47.17158977480437
 20
523.054341610965
 30
0.0
  0
VERTEX
  5
130
330
128
100
AcDbEntity
  8
Layer 1
 62
    40
370
    13
100
AcDbVertex
100
AcDb2dVertex
 10
46.01763351017316
 20
523.5475070296785
 30
0.0
  0
VERTEX
  5
131
330
128
100
AcDbEntity
  8
Layer 1
 62
    40
370
    13
100
AcDbVertex
100
AcDb2dVertex
 10
44.7942155078206
 20
523.8269042735324
 30
0.0
  0
VERTEX
  5
132
330
128
100
AcDbEntity
  8
Layer 1
 62
    40
370
    13
100
AcDbVertex
100
AcDb2dVertex
 10
43.54043760150427
 20
523.8830162662483
 30
0.0
  0
VERTEX
  5
133
330
128
100
AcDbEntity
  8
Layer 1
 62
    40
370
    13
100
AcDbVertex
100
AcDb2dVertex
 10
42.29688732240977
 20
523.7147233517939
 30
0.0
  0
VERTEX
  5
134
330
128
100
AcDbEntity
  8
Layer 1
 62
    40
370
    13
100
AcDbVertex
100
AcDb2dVertex
 10
41.10344165077888
 20
523.3270209186226
 30
0.0
  0
VERTEX
  5
135
330
128
100
AcDbEntity
  8
Layer 1
 62
    40
370
    13
100
AcDbVertex
100
AcDb2dVertex
 10
39.99819042357039
 20
522.7322682467877
 30
0.0
  0
VERTEX
  5
136
330
128
100
AcDbEntity
  8
Layer 1
 62
    40
370
    13
100
AcDbVertex
100
AcDb2dVertex
 10
39.01711335675836
 20
521.9498009347004
 30
0.0
  0
VERTEX
  5
137
330
128
100
AcDbEntity
  8
Layer 1
 62
    40
370
    13
100
AcDbVertex
100
AcDb2dVertex
 10
38.19162541479893
 20
521.0046820520157
 30
0.0
  0
VERTEX
  5
138
330
128
100
AcDbEntity
  8
Layer 1
 62
    40
370
    13
100
AcDbVertex
100
AcDb2dVertex
 10
37.54780166414609
 20
519.9273145663909
 30
0.0
  0
VERTEX
  5
139
330
128
100
AcDbEntity
  8
Layer 1
 62
    40
370
    13
100
AcDbVertex
100
AcDb2dVertex
 10
37.1068294420341
 20
518.7525800696143
 30
0.0
  0
VERTEX
  5
13A
330
128
100
AcDbEntity
  8
Layer 1
 62
    40
370
    13
100
AcDbVertex
100
AcDb2dVertex
 10
36.88281210810574
 20
517.5174702744587
 30
0.0
  0
VERTEX
  5
13B
330
128
100
AcDbEntity
  8
Layer 1
 62
    40
370
    13
100
AcDbVertex
100
AcDb2dVertex
 10
36.88281210810574
 20
516.2626373076499
 30
0.0
  0
VERTEX
  5
13C
330
128
100
AcDbEntity
  8
Layer 1
 62
    40
370
    13
100
AcDbVertex
100
AcDb2dVertex
 10
37.1068294420341
 20
515.0279150857364
 30
0.0
  0
VERTEX
  5
13D
330
128
100
AcDbEntity
  8
Layer 1
 62
    40
370
    13
100
AcDbVertex
100
AcDb2dVertex
 10
37.54780166414609
 20
513.8528360794113
 30
0.0
  0
VERTEX
  5
13E
330
128
100
AcDbEntity
  8
Layer 1
 62
    40
370
    13
100
AcDbVertex
100
AcDb2dVertex
 10
38.19162541479893
 20
512.775813103335
 30
0.0
  0
VERTEX
  5
13F
330
128
100
AcDbEntity
  8
Layer 1
 62
    40
370
    13
100
AcDbVertex
100
AcDb2dVertex
 10
39.01711335675836
 20
511.8306942206503
 30
0.0
  0
VERTEX
  5
140
330
128
100
AcDbEntity
  8
Layer 1
 62
    40
370
    13
100
AcDbVertex
100
AcDb2dVertex
 10
39.99819042357039
 20
511.0482269085629
 30
0.0
  0
VERTEX
  5
141
330
128
100
AcDbEntity
  8
Layer 1
 62
    40
370
    13
100
AcDbVertex
100
AcDb2dVertex
 10
41.10344165077888
 20
510.4534742367281
 30
0.0
  0
VERTEX
  5
142
330
128
100
AcDbEntity
  8
Layer 1
 62
    40
370
    13
100
AcDbVertex
100
AcDb2dVertex
 10
42.29688732240977
 20
510.0657718035568
 30
0.0
  0
VERTEX
  5
143
330
128
100
AcDbEntity
  8
Layer 1
 62
    40
370
    13
100
AcDbVertex
100
AcDb2dVertex
 10
43.54043760150427
 20
509.8971343795538
 30
0.0
  0
VERTEX
  5
144
330
128
100
AcDbEntity
  8
Layer 1
 62
    40
370
    13
100
AcDbVertex
100
AcDb2dVertex
 10
44.7942155078206
 20
509.9535908818183
 30
0.0
  0
VERTEX
  5
145
330
128
100
AcDbEntity
  8
Layer 1
 62
    40
370
    13
100
AcDbVertex
100
AcDb2dVertex
 10
46.01763351017316
 20
510.2326436161236
 30
0.0
  0
VERTEX
  5
146
330
128
100
AcDbEntity
  8
Layer 1
 62
    40
370
    13
100
AcDbVertex
100
AcDb2dVertex
 10
47.17158977480437
 20
510.7261535443856
 30
0.0
  0
VERTEX
  5
147
330
128
100
AcDbEntity
  8
Layer 1
 62
    40
370
    13
100
AcDbVertex
100
AcDb2dVertex
 10
48.21898492970746
 20
511.4172396987267
 30
0.0
  0
VERTEX
  5
148
330
128
100
AcDbEntity
  8
Layer 1
 62
    40
370
    13
100
AcDbVertex
100
AcDb2dVertex
 10
49.12597091173983
 20
512.2847147419127
 30
0.0
  0
VERTEX
  5
149
330
128
100
AcDbEntity
  8
Layer 1
 62
    40
370
    13
100
AcDbVertex
100
AcDb2dVertex
 10
49.86363045067217
 20
513.3000274451093
 30
0.0
  0
VERTEX
  5
14A
330
128
100
AcDbEntity
  8
Layer 1
 62
    40
370
    13
100
AcDbVertex
100
AcDb2dVertex
 10
50.40832157873695
 20
514.4306647196748
 30
0.0
  0
VERTEX
  5
14B
330
128
100
AcDbEntity
  8
Layer 1
 62
    40
370
    13
100
AcDbVertex
100
AcDb2dVertex
 10
50.74204367202374
 20
515.6403669356267
 30
0.0
  0
VERTEX
  5
14C
330
128
100
AcDbEntity
  8
Layer 1
 62
    40
370
    13
100
AcDbVertex
100
AcDb2dVertex
 10
50.8545906351575
 20
516.8902475776754
 30
0.0
  0
SEQEND
  5
14D
330
128
100
AcDbEntity
  8
Layer 1
 62
    40
370
    13
  0
POLYLINE
  5
14E
330
F7
100
AcDbEntity
  8
Layer 1
 62
    40
370
    13
100
AcDb2dPolyline
 66
     1
 10
0.0
 20
0.0
 30
0.0
  0
VERTEX
  5
14F
330
14E
100
AcDbEntity
  8
Layer 1
 62
    40
370
    13
100
AcDbVertex
100
AcDb2dVertex
 10
50.8545906351575
 20
297.8900492681673
 30
0.0
  0
VERTEX
  5
150
330
14E
100
AcDbEntity
  8
Layer 1
 62
    40
370
    13
100
AcDbVertex
100
AcDb2dVertex
 10
50.74204367202374
 20
299.1399514420627
 30
0.0
  0
VERTEX
  5
151
330
14E
100
AcDbEntity
  8
Layer 1
 62
    40
370
    13
100
AcDbVertex
100
AcDb2dVertex
 10
50.40832157873695
 20
300.3499766357163
 30
0.0
  0
VERTEX
  5
152
330
14E
100
AcDbEntity
  8
Layer 1
 62
    40
370
    13
100
AcDbVertex
100
AcDb2dVertex
 10
49.86363045067217
 20
301.4806354421285
 30
0.0
  0
VERTEX
  5
153
330
14E
100
AcDbEntity
  8
Layer 1
 62
    40
370
    13
100
AcDbVertex
100
AcDb2dVertex
 10
49.12597091173983
 20
302.4959266134784
 30
0.0
  0
VERTEX
  5
154
330
14E
100
AcDbEntity
  8
Layer 1
 62
    40
370
    13
100
AcDbVertex
100
AcDb2dVertex
 10
48.21898492970746
 20
303.3630571471159
 30
0.0
  0
VERTEX
  5
155
330
14E
100
AcDbEntity
  8
Layer 1
 62
    40
370
    13
100
AcDbVertex
100
AcDb2dVertex
 10
47.17158977480437
 20
304.0544878110055
 30
0.0
  0
VERTEX
  5
156
330
14E
100
AcDbEntity
  8
Layer 1
 62
    40
370
    13
100
AcDbVertex
100
AcDb2dVertex
 10
46.01763351017316
 20
304.5476747615658
 30
0.0
  0
VERTEX
  5
157
330
14E
100
AcDbEntity
  8
Layer 1
 62
    40
370
    13
100
AcDbVertex
100
AcDb2dVertex
 10
44.7942155078206
 20
304.826727495871
 30
0.0
  0
VERTEX
  5
158
330
14E
100
AcDbEntity
  8
Layer 1
 62
    40
370
    13
100
AcDbVertex
100
AcDb2dVertex
 10
43.54043760150427
 20
304.8831624662888
 30
0.0
  0
VERTEX
  5
159
330
14E
100
AcDbEntity
  8
Layer 1
 62
    40
370
    13
100
AcDbVertex
100
AcDb2dVertex
 10
42.29688732240977
 20
304.7145465741326
 30
0.0
  0
VERTEX
  5
15A
330
14E
100
AcDbEntity
  8
Layer 1
 62
    40
370
    13
100
AcDbVertex
100
AcDb2dVertex
 10
41.10344165077888
 20
304.3268441409613
 30
0.0
  0
VERTEX
  5
15B
330
14E
100
AcDbEntity
  8
Layer 1
 62
    40
370
    13
100
AcDbVertex
100
AcDb2dVertex
 10
39.99819042357039
 20
303.7320484054329
 30
0.0
  0
VERTEX
  5
15C
330
14E
100
AcDbEntity
  8
Layer 1
 62
    40
370
    13
100
AcDbVertex
100
AcDb2dVertex
 10
39.01711335675836
 20
302.9496026251923
 30
0.0
  0
VERTEX
  5
15D
330
14E
100
AcDbEntity
  8
Layer 1
 62
    40
370
    13
100
AcDbVertex
100
AcDb2dVertex
 10
38.19162541479893
 20
302.0045052743544
 30
0.0
  0
VERTEX
  5
15E
330
14E
100
AcDbEntity
  8
Layer 1
 62
    40
370
    13
100
AcDbVertex
100
AcDb2dVertex
 10
37.54780166414609
 20
300.9274822982781
 30
0.0
  0
VERTEX
  5
15F
330
14E
100
AcDbEntity
  8
Layer 1
 62
    40
370
    13
100
AcDbVertex
100
AcDb2dVertex
 10
37.1068294420341
 20
299.7523602282594
 30
0.0
  0
VERTEX
  5
160
330
14E
100
AcDbEntity
  8
Layer 1
 62
    40
370
    13
100
AcDbVertex
100
AcDb2dVertex
 10
36.88281210810574
 20
298.5176380063459
 30
0.0
  0
VERTEX
  5
161
330
14E
100
AcDbEntity
  8
Layer 1
 62
    40
370
    13
100
AcDbVertex
100
AcDb2dVertex
 10
36.88281210810574
 20
297.2628265713839
 30
0.0
  0
VERTEX
  5
162
330
14E
100
AcDbEntity
  8
Layer 1
 62
    40
370
    13
100
AcDbVertex
100
AcDb2dVertex
 10
37.1068294420341
 20
296.0281043494704
 30
0.0
  0
VERTEX
  5
163
330
14E
100
AcDbEntity
  8
Layer 1
 62
    40
370
    13
100
AcDbVertex
100
AcDb2dVertex
 10
37.54780166414609
 20
294.8529822794517
 30
0.0
  0
VERTEX
  5
164
330
14E
100
AcDbEntity
  8
Layer 1
 62
    40
370
    13
100
AcDbVertex
100
AcDb2dVertex
 10
38.19162541479893
 20
293.7756147938269
 30
0.0
  0
VERTEX
  5
165
330
14E
100
AcDbEntity
  8
Layer 1
 62
    40
370
    13
100
AcDbVertex
100
AcDb2dVertex
 10
39.01711335675836
 20
292.830517442989
 30
0.0
  0
VERTEX
  5
166
330
14E
100
AcDbEntity
  8
Layer 1
 62
    40
370
    13
100
AcDbVertex
100
AcDb2dVertex
 10
39.99819042357039
 20
292.0480501309016
 30
0.0
  0
VERTEX
  5
167
330
14E
100
AcDbEntity
  8
Layer 1
 62
    40
370
    13
100
AcDbVertex
100
AcDb2dVertex
 10
41.10344165077888
 20
291.4536204367685
 30
0.0
  0
VERTEX
  5
168
330
14E
100
AcDbEntity
  8
Layer 1
 62
    40
370
    13
100
AcDbVertex
100
AcDb2dVertex
 10
42.29688732240977
 20
291.0655734940487
 30
0.0
  0
VERTEX
  5
169
330
14E
100
AcDbEntity
  8
Layer 1
 62
    40
370
    13
100
AcDbVertex
100
AcDb2dVertex
 10
43.54043760150427
 20
290.897302111441
 30
0.0
  0
VERTEX
  5
16A
330
14E
100
AcDbEntity
  8
Layer 1
 62
    40
370
    13
100
AcDbVertex
100
AcDb2dVertex
 10
44.7942155078206
 20
290.9533925723103
 30
0.0
  0
VERTEX
  5
16B
330
14E
100
AcDbEntity
  8
Layer 1
 62
    40
370
    13
100
AcDbVertex
100
AcDb2dVertex
 10
46.01763351017316
 20
291.232789816164
 30
0.0
  0
VERTEX
  5
16C
330
14E
100
AcDbEntity
  8
Layer 1
 62
    40
370
    13
100
AcDbVertex
100
AcDb2dVertex
 10
47.17158977480437
 20
291.7259767667243
 30
0.0
  0
VERTEX
  5
16D
330
14E
100
AcDbEntity
  8
Layer 1
 62
    40
370
    13
100
AcDbVertex
100
AcDb2dVertex
 10
48.21898492970746
 20
292.417407430614
 30
0.0
  0
VERTEX
  5
16E
330
14E
100
AcDbEntity
  8
Layer 1
 62
    40
370
    13
100
AcDbVertex
100
AcDb2dVertex
 10
49.12597091173983
 20
293.2845379642513
 30
0.0
  0
VERTEX
  5
16F
330
14E
100
AcDbEntity
  8
Layer 1
 62
    40
370
    13
100
AcDbVertex
100
AcDb2dVertex
 10
49.86363045067217
 20
294.2998291356013
 30
0.0
  0
VERTEX
  5
170
330
14E
100
AcDbEntity
  8
Layer 1
 62
    40
370
    13
100
AcDbVertex
100
AcDb2dVertex
 10
50.40832157873695
 20
295.4304879420135
 30
0.0
  0
VERTEX
  5
171
330
14E
100
AcDbEntity
  8
Layer 1
 62
    40
370
    13
100
AcDbVertex
100
AcDb2dVertex
 10
50.74204367202374
 20
296.6401686261186
 30
0.0
  0
VERTEX
  5
172
330
14E
100
AcDbEntity
  8
Layer 1
 62
    40
370
    13
100
AcDbVertex
100
AcDb2dVertex
 10
50.8545906351575
 20
297.8900492681673
 30
0.0
  0
SEQEND
  5
173
330
14E
100
AcDbEntity
  8
Layer 1
 62
    40
370
    13
  0
POLYLINE
  5
174
330
F7
100
AcDbEntity
  8
Layer 1
 62
    40
370
    13
100
AcDb2dPolyline
 66
     1
 10
0.0
 20
0.0
 30
0.0
  0
VERTEX
  5
175
330
174
100
AcDbEntity
  8
Layer 1
 62
    40
370
    13
100
AcDbVertex
100
AcDb2dVertex
 10
50.8545906351575
 20
566.8901672022197
 30
0.0
  0
VERTEX
  5
176
330
174
100
AcDbEntity
  8
Layer 1
 62
    40
370
    13
100
AcDbVertex
100
AcDb2dVertex
 10
50.74204367202374
 20
568.1400478442682
 30
0.0
  0
VERTEX
  5
177
330
174
100
AcDbEntity
  8
Layer 1
 62
    40
370
    13
100
AcDbVertex
100
AcDb2dVertex
 10
50.40832157873695
 20
569.3497069965266
 30
0.0
  0
VERTEX
  5
178
330
174
100
AcDbEntity
  8
Layer 1
 62
    40
370
    13
100
AcDbVertex
100
AcDb2dVertex
 10
49.86363045067217
 20
570.480344271092
 30
0.0
  0
VERTEX
  5
179
330
174
100
AcDbEntity
  8
Layer 1
 62
    40
370
    13
100
AcDbVertex
100
AcDb2dVertex
 10
49.12597091173983
 20
571.4956569742887
 30
0.0
  0
VERTEX
  5
17A
330
174
100
AcDbEntity
  8
Layer 1
 62
    40
370
    13
100
AcDbVertex
100
AcDb2dVertex
 10
48.21898492970746
 20
572.3631320174746
 30
0.0
  0
VERTEX
  5
17B
330
174
100
AcDbEntity
  8
Layer 1
 62
    40
370
    13
100
AcDbVertex
100
AcDb2dVertex
 10
47.17158977480437
 20
573.0542181718158
 30
0.0
  0
VERTEX
  5
17C
330
174
100
AcDbEntity
  8
Layer 1
 62
    40
370
    13
100
AcDbVertex
100
AcDb2dVertex
 10
46.01763351017316
 20
573.5474266542228
 30
0.0
  0
VERTEX
  5
17D
330
174
100
AcDbEntity
  8
Layer 1
 62
    40
370
    13
100
AcDbVertex
100
AcDb2dVertex
 10
44.7942155078206
 20
573.8268238980767
 30
0.0
  0
VERTEX
  5
17E
330
174
100
AcDbEntity
  8
Layer 1
 62
    40
370
    13
100
AcDbVertex
100
AcDb2dVertex
 10
43.54043760150427
 20
573.8832804003412
 30
0.0
  0
VERTEX
  5
17F
330
174
100
AcDbEntity
  8
Layer 1
 62
    40
370
    13
100
AcDbVertex
100
AcDb2dVertex
 10
42.29688732240977
 20
573.7146429763382
 30
0.0
  0
VERTEX
  5
180
330
174
100
AcDbEntity
  8
Layer 1
 62
    40
370
    13
100
AcDbVertex
100
AcDb2dVertex
 10
41.10344165077888
 20
573.3269405431669
 30
0.0
  0
VERTEX
  5
181
330
174
100
AcDbEntity
  8
Layer 1
 62
    40
370
    13
100
AcDbVertex
100
AcDb2dVertex
 10
39.99819042357039
 20
572.7321448076385
 30
0.0
  0
VERTEX
  5
182
330
174
100
AcDbEntity
  8
Layer 1
 62
    40
370
    13
100
AcDbVertex
100
AcDb2dVertex
 10
39.01711335675836
 20
571.9496774955511
 30
0.0
  0
VERTEX
  5
183
330
174
100
AcDbEntity
  8
Layer 1
 62
    40
370
    13
100
AcDbVertex
100
AcDb2dVertex
 10
38.19162541479893
 20
571.0046016765599
 30
0.0
  0
VERTEX
  5
184
330
174
100
AcDbEntity
  8
Layer 1
 62
    40
370
    13
100
AcDbVertex
100
AcDb2dVertex
 10
37.54780166414609
 20
569.9271911272416
 30
0.0
  0
VERTEX
  5
185
330
174
100
AcDbEntity
  8
Layer 1
 62
    40
370
    13
100
AcDbVertex
100
AcDb2dVertex
 10
37.1068294420341
 20
568.752456630465
 30
0.0
  0
VERTEX
  5
186
330
174
100
AcDbEntity
  8
Layer 1
 62
    40
370
    13
100
AcDbVertex
100
AcDb2dVertex
 10
36.88281210810574
 20
567.5177344085514
 30
0.0
  0
VERTEX
  5
187
330
174
100
AcDbEntity
  8
Layer 1
 62
    40
370
    13
100
AcDbVertex
100
AcDb2dVertex
 10
36.88281210810574
 20
566.2625569321942
 30
0.0
  0
VERTEX
  5
188
330
174
100
AcDbEntity
  8
Layer 1
 62
    40
370
    13
100
AcDbVertex
100
AcDb2dVertex
 10
37.1068294420341
 20
565.0278347102807
 30
0.0
  0
VERTEX
  5
189
330
174
100
AcDbEntity
  8
Layer 1
 62
    40
370
    13
100
AcDbVertex
100
AcDb2dVertex
 10
37.54780166414609
 20
563.853100213504
 30
0.0
  0
VERTEX
  5
18A
330
174
100
AcDbEntity
  8
Layer 1
 62
    40
370
    13
100
AcDbVertex
100
AcDb2dVertex
 10
38.19162541479893
 20
562.7756896641857
 30
0.0
  0
VERTEX
  5
18B
330
174
100
AcDbEntity
  8
Layer 1
 62
    40
370
    13
100
AcDbVertex
100
AcDb2dVertex
 10
39.01711335675836
 20
561.8306138451946
 30
0.0
  0
VERTEX
  5
18C
330
174
100
AcDbEntity
  8
Layer 1
 62
    40
370
    13
100
AcDbVertex
100
AcDb2dVertex
 10
39.99819042357039
 20
561.0481465331072
 30
0.0
  0
VERTEX
  5
18D
330
174
100
AcDbEntity
  8
Layer 1
 62
    40
370
    13
100
AcDbVertex
100
AcDb2dVertex
 10
41.10344165077888
 20
560.4533507975789
 30
0.0
  0
VERTEX
  5
18E
330
174
100
AcDbEntity
  8
Layer 1
 62
    40
370
    13
100
AcDbVertex
100
AcDb2dVertex
 10
42.29688732240977
 20
560.0656483644076
 30
0.0
  0
VERTEX
  5
18F
330
174
100
AcDbEntity
  8
Layer 1
 62
    40
370
    13
100
AcDbVertex
100
AcDb2dVertex
 10
43.54043760150427
 20
559.8973985136466
 30
0.0
  0
VERTEX
  5
190
330
174
100
AcDbEntity
  8
Layer 1
 62
    40
370
    13
100
AcDbVertex
100
AcDb2dVertex
 10
44.7942155078206
 20
559.9534674426691
 30
0.0
  0
VERTEX
  5
191
330
174
100
AcDbEntity
  8
Layer 1
 62
    40
370
    13
100
AcDbVertex
100
AcDb2dVertex
 10
46.01763351017316
 20
560.2328646865228
 30
0.0
  0
VERTEX
  5
192
330
174
100
AcDbEntity
  8
Layer 1
 62
    40
370
    13
100
AcDbVertex
100
AcDb2dVertex
 10
47.17158977480437
 20
560.7260731689299
 30
0.0
  0
VERTEX
  5
193
330
174
100
AcDbEntity
  8
Layer 1
 62
    40
370
    13
100
AcDbVertex
100
AcDb2dVertex
 10
48.21898492970746
 20
561.4175038328195
 30
0.0
  0
VERTEX
  5
194
330
174
100
AcDbEntity
  8
Layer 1
 62
    40
370
    13
100
AcDbVertex
100
AcDb2dVertex
 10
49.12597091173983
 20
562.284634366457
 30
0.0
  0
VERTEX
  5
195
330
174
100
AcDbEntity
  8
Layer 1
 62
    40
370
    13
100
AcDbVertex
100
AcDb2dVertex
 10
49.86363045067217
 20
563.2999470696536
 30
0.0
  0
VERTEX
  5
196
330
174
100
AcDbEntity
  8
Layer 1
 62
    40
370
    13
100
AcDbVertex
100
AcDb2dVertex
 10
50.40832157873695
 20
564.430584344219
 30
0.0
  0
VERTEX
  5
197
330
174
100
AcDbEntity
  8
Layer 1
 62
    40
370
    13
100
AcDbVertex
100
AcDb2dVertex
 10
50.74204367202374
 20
565.6402434964774
 30
0.0
  0
VERTEX
  5
198
330
174
100
AcDbEntity
  8
Layer 1
 62
    40
370
    13
100
AcDbVertex
100
AcDb2dVertex
 10
50.8545906351575
 20
566.8901672022197
 30
0.0
  0
SEQEND
  5
199
330
174
100
AcDbEntity
  8
Layer 1
 62
    40
370
    13
  0
ENDBLK
  5
FA
330
F7
100
AcDbEntity
  8
0
100
AcDbBlockEnd
  0
BLOCK
  5
1AA
330
1A8
100
AcDbEntity
  8
0
100
AcDbBlockBegin
  2
block 7
 70
     0
 10
0.0
 20
0.0
 30
0.0
  3
block 7
  1

  0
POLYLINE
  5
1AC
330
1A8
100
AcDbEntity
  8
Layer 1
 62
    40
370
    13
100
AcDb2dPolyline
 66
     1
 10
0.0
 20
0.0
 30
0.0
  0
VERTEX
  5
1AD
330
1AC
100
AcDbEntity
  8
Layer 1
 62
    40
370
    13
100
AcDbVertex
100
AcDb2dVertex
 10
248.3997893230217
 20
326.2714564265992
 30
0.0
  0
VERTEX
  5
1AE
330
1AC
100
AcDbEntity
  8
Layer 1
 62
    40
370
    13
100
AcDbVertex
100
AcDb2dVertex
 10
248.2607797201918
 20
325.4473680546807
 30
0.0
  0
VERTEX
  5
1AF
330
1AC
100
AcDbEntity
  8
Layer 1
 62
    40
370
    13
100
AcDbVertex
100
AcDb2dVertex
 10
248.2607797201918
 20
324.3608064704797
 30
0.0
  0
VERTEX
  5
1B0
330
1AC
100
AcDbEntity
  8
Layer 1
 62
    40
370
    13
100
AcDbVertex
100
AcDb2dVertex
 10
248.4389342204728
 20
323.1910027666163
 30
0.0
  0
VERTEX
  5
1B1
330
1AC
100
AcDbEntity
  8
Layer 1
 62
    40
370
    13
100
AcDbVertex
100
AcDb2dVertex
 10
248.7885252848385
 20
321.9802670220188
 30
0.0
  0
VERTEX
  5
1B2
330
1AC
100
AcDbEntity
  8
Layer 1
 62
    40
370
    13
100
AcDbVertex
100
AcDb2dVertex
 10
249.2972366969292
 20
320.7723519493499
 30
0.0
  0
VERTEX
  5
1B3
330
1AC
100
AcDbEntity
  8
Layer 1
 62
    40
370
    13
100
AcDbVertex
100
AcDb2dVertex
 10
249.9467233232859
 20
319.6110102612722
 30
0.0
  0
VERTEX
  5
1B4
330
1AC
100
AcDbEntity
  8
Layer 1
 62
    40
370
    13
100
AcDbVertex
100
AcDb2dVertex
 10
250.7133001324476
 20
318.5382075271654
 30
0.0
  0
VERTEX
  5
1B5
330
1AC
100
AcDbEntity
  8
Layer 1
 62
    40
370
    13
100
AcDbVertex
100
AcDb2dVertex
 10
251.5691479783708
 20
317.5927656667789
 30
0.0
  0
VERTEX
  5
1B6
330
1AC
100
AcDbEntity
  8
Layer 1
 62
    40
370
    13
100
AcDbVertex
100
AcDb2dVertex
 10
252.4835193838497
 20
316.8085327432553
 30
0.0
  0
VERTEX
  5
1B7
330
1AC
100
AcDbEntity
  8
Layer 1
 62
    40
370
    13
100
AcDbVertex
100
AcDb2dVertex
 10
253.4236859417744
 20
316.2144690905176
 30
0.0
  0
VERTEX
  5
1B8
330
1AC
100
AcDbEntity
  8
Layer 1
 62
    40
370
    13
100
AcDbVertex
100
AcDb2dVertex
 10
254.3550244425181
 20
315.8313314088642
 30
0.0
  0
VERTEX
  5
1B9
330
1AC
100
AcDbEntity
  8
Layer 1
 62
    40
370
    13
100
AcDbVertex
100
AcDb2dVertex
 10
254.4407211927137
 20
315.8066559124511
 30
0.0
  0
SEQEND
  5
1BA
330
1AC
100
AcDbEntity
  8
Layer 1
 62
    40
370
    13
  0
POLYLINE
  5
1BB
330
1A8
100
AcDbEntity
  8
Layer 1
 62
    40
370
    13
100
AcDb2dPolyline
 66
     1
 10
0.0
 20
0.0
 30
0.0
  0
VERTEX
  5
1BC
330
1BB
100
AcDbEntity
  8
Layer 1
 62
    40
370
    13
100
AcDbVertex
100
AcDb2dVertex
 10
248.3997893230217
 20
367.0984217484237
 30
0.0
  0
VERTEX
  5
1BD
330
1BB
100
AcDbEntity
  8
Layer 1
 62
    40
370
    13
100
AcDbVertex
100
AcDb2dVertex
 10
248.2607797201918
 20
366.2743333765052
 30
0.0
  0
VERTEX
  5
1BE
330
1BB
100
AcDbEntity
  8
Layer 1
 62
    40
370
    13
100
AcDbVertex
100
AcDb2dVertex
 10
248.2607797201918
 20
365.1877717923042
 30
0.0
  0
VERTEX
  5
1BF
330
1BB
100
AcDbEntity
  8
Layer 1
 62
    40
370
    13
100
AcDbVertex
100
AcDb2dVertex
 10
248.4389342204728
 20
364.0179680884409
 30
0.0
  0
VERTEX
  5
1C0
330
1BB
100
AcDbEntity
  8
Layer 1
 62
    40
370
    13
100
AcDbVertex
100
AcDb2dVertex
 10
248.7885252848385
 20
362.8072323438433
 30
0.0
  0
VERTEX
  5
1C1
330
1BB
100
AcDbEntity
  8
Layer 1
 62
    40
370
    13
100
AcDbVertex
100
AcDb2dVertex
 10
249.2972366969292
 20
361.5996833125697
 30
0.0
  0
VERTEX
  5
1C2
330
1BB
100
AcDbEntity
  8
Layer 1
 62
    40
370
    13
100
AcDbVertex
100
AcDb2dVertex
 10
249.9467233232859
 20
360.4383200926452
 30
0.0
  0
VERTEX
  5
1C3
330
1BB
100
AcDbEntity
  8
Layer 1
 62
    40
370
    13
100
AcDbVertex
100
AcDb2dVertex
 10
250.7133001324476
 20
359.3655388903852
 30
0.0
  0
VERTEX
  5
1C4
330
1BB
100
AcDbEntity
  8
Layer 1
 62
    40
370
    13
100
AcDbVertex
100
AcDb2dVertex
 10
251.5691479783708
 20
358.4197309886034
 30
0.0
  0
VERTEX
  5
1C5
330
1BB
100
AcDbEntity
  8
Layer 1
 62
    40
370
    13
100
AcDbVertex
100
AcDb2dVertex
 10
252.4835193838497
 20
357.6358641064751
 30
0.0
  0
VERTEX
  5
1C6
330
1BB
100
AcDbEntity
  8
Layer 1
 62
    40
370
    13
100
AcDbVertex
100
AcDb2dVertex
 10
253.4236859417744
 20
357.0414344123421
 30
0.0
  0
VERTEX
  5
1C7
330
1BB
100
AcDbEntity
  8
Layer 1
 62
    40
370
    13
100
AcDbVertex
100
AcDb2dVertex
 10
254.3550244425181
 20
356.6583182625355
 30
0.0
  0
VERTEX
  5
1C8
330
1BB
100
AcDbEntity
  8
Layer 1
 62
    40
370
    13
100
AcDbVertex
100
AcDb2dVertex
 10
254.4407211927137
 20
356.6336212342756
 30
0.0
  0
SEQEND
  5
1C9
330
1BB
100
AcDbEntity
  8
Layer 1
 62
    40
370
    13
  0
POLYLINE
  5
1CA
330
1A8
100
AcDbEntity
  8
Layer 1
 62
    40
370
    13
100
AcDb2dPolyline
 66
     1
 10
0.0
 20
0.0
 30
0.0
  0
VERTEX
  5
1CB
330
1CA
100
AcDbEntity
  8
Layer 1
 62
    40
370
    13
100
AcDbVertex
100
AcDb2dVertex
 10
248.3997893230217
 20
505.0941114450992
 30
0.0
  0
VERTEX
  5
1CC
330
1CA
100
AcDbEntity
  8
Layer 1
 62
    40
370
    13
100
AcDbVertex
100
AcDb2dVertex
 10
248.2607797201918
 20
504.2700446050275
 30
0.0
  0
VERTEX
  5
1CD
330
1CA
100
AcDbEntity
  8
Layer 1
 62
    40
370
    13
100
AcDbVertex
100
AcDb2dVertex
 10
248.2607797201918
 20
503.1831169794311
 30
0.0
  0
VERTEX
  5
1CE
330
1CA
100
AcDbEntity
  8
Layer 1
 62
    40
370
    13
100
AcDbVertex
100
AcDb2dVertex
 10
248.4389342204728
 20
502.0133348074145
 30
0.0
  0
VERTEX
  5
1CF
330
1CA
100
AcDbEntity
  8
Layer 1
 62
    40
370
    13
100
AcDbVertex
100
AcDb2dVertex
 10
248.7885252848385
 20
500.802599062817
 30
0.0
  0
VERTEX
  5
1D0
330
1CA
100
AcDbEntity
  8
Layer 1
 62
    40
370
    13
100
AcDbVertex
100
AcDb2dVertex
 10
249.2972366969292
 20
499.5950500315434
 30
0.0
  0
VERTEX
  5
1D1
330
1CA
100
AcDbEntity
  8
Layer 1
 62
    40
370
    13
100
AcDbVertex
100
AcDb2dVertex
 10
249.9467233232859
 20
498.4337083434657
 30
0.0
  0
VERTEX
  5
1D2
330
1CA
100
AcDbEntity
  8
Layer 1
 62
    40
370
    13
100
AcDbVertex
100
AcDb2dVertex
 10
250.7133001324476
 20
497.3609056093589
 30
0.0
  0
VERTEX
  5
1D3
330
1CA
100
AcDbEntity
  8
Layer 1
 62
    40
370
    13
100
AcDbVertex
100
AcDb2dVertex
 10
251.5691479783708
 20
496.4150977075771
 30
0.0
  0
VERTEX
  5
1D4
330
1CA
100
AcDbEntity
  8
Layer 1
 62
    40
370
    13
100
AcDbVertex
100
AcDb2dVertex
 10
252.4835193838497
 20
495.6312092936021
 30
0.0
  0
VERTEX
  5
1D5
330
1CA
100
AcDbEntity
  8
Layer 1
 62
    40
370
    13
100
AcDbVertex
100
AcDb2dVertex
 10
253.4236859417744
 20
495.0368011313158
 30
0.0
  0
VERTEX
  5
1D6
330
1CA
100
AcDbEntity
  8
Layer 1
 62
    40
370
    13
100
AcDbVertex
100
AcDb2dVertex
 10
254.3550244425181
 20
494.6536634496624
 30
0.0
  0
VERTEX
  5
1D7
330
1CA
100
AcDbEntity
  8
Layer 1
 62
    40
370
    13
100
AcDbVertex
100
AcDb2dVertex
 10
254.4407211927137
 20
494.6289879532494
 30
0.0
  0
SEQEND
  5
1D8
330
1CA
100
AcDbEntity
  8
Layer 1
 62
    40
370
    13
  0
POLYLINE
  5
1D9
330
1A8
100
AcDbEntity
  8
Layer 1
 62
    40
370
    13
100
AcDb2dPolyline
 66
     1
 10
0.0
 20
0.0
 30
0.0
  0
VERTEX
  5
1DA
330
1D9
100
AcDbEntity
  8
Layer 1
 62
    40
370
    13
100
AcDbVertex
100
AcDb2dVertex
 10
248.3997893230217
 20
545.9211198306173
 30
0.0
  0
VERTEX
  5
1DB
330
1D9
100
AcDbEntity
  8
Layer 1
 62
    40
370
    13
100
AcDbVertex
100
AcDb2dVertex
 10
248.2607797201918
 20
545.0970099268519
 30
0.0
  0
VERTEX
  5
1DC
330
1D9
100
AcDbEntity
  8
Layer 1
 62
    40
370
    13
100
AcDbVertex
100
AcDb2dVertex
 10
248.2607797201918
 20
544.0101253649492
 30
0.0
  0
VERTEX
  5
1DD
330
1D9
100
AcDbEntity
  8
Layer 1
 62
    40
370
    13
100
AcDbVertex
100
AcDb2dVertex
 10
248.4389342204728
 20
542.840300129239
 30
0.0
  0
VERTEX
  5
1DE
330
1D9
100
AcDbEntity
  8
Layer 1
 62
    40
370
    13
100
AcDbVertex
100
AcDb2dVertex
 10
248.7885252848385
 20
541.6299088941901
 30
0.0
  0
VERTEX
  5
1DF
330
1D9
100
AcDbEntity
  8
Layer 1
 62
    40
370
    13
100
AcDbVertex
100
AcDb2dVertex
 10
249.2972366969292
 20
540.4220153533679
 30
0.0
  0
VERTEX
  5
1E0
330
1D9
100
AcDbEntity
  8
Layer 1
 62
    40
370
    13
100
AcDbVertex
100
AcDb2dVertex
 10
249.9467233232859
 20
539.2606736652903
 30
0.0
  0
VERTEX
  5
1E1
330
1D9
100
AcDbEntity
  8
Layer 1
 62
    40
370
    13
100
AcDbVertex
100
AcDb2dVertex
 10
250.7133001324476
 20
538.1878709311834
 30
0.0
  0
VERTEX
  5
1E2
330
1D9
100
AcDbEntity
  8
Layer 1
 62
    40
370
    13
100
AcDbVertex
100
AcDb2dVertex
 10
251.5691479783708
 20
537.2424075389501
 30
0.0
  0
VERTEX
  5
1E3
330
1D9
100
AcDbEntity
  8
Layer 1
 62
    40
370
    13
100
AcDbVertex
100
AcDb2dVertex
 10
252.4835193838497
 20
536.4581746154266
 30
0.0
  0
VERTEX
  5
1E4
330
1D9
100
AcDbEntity
  8
Layer 1
 62
    40
370
    13
100
AcDbVertex
100
AcDb2dVertex
 10
253.4236859417744
 20
535.8637664531403
 30
0.0
  0
VERTEX
  5
1E5
330
1D9
100
AcDbEntity
  8
Layer 1
 62
    40
370
    13
100
AcDbVertex
100
AcDb2dVertex
 10
254.3550244425181
 20
535.480628771487
 30
0.0
  0
VERTEX
  5
1E6
330
1D9
100
AcDbEntity
  8
Layer 1
 62
    40
370
    13
100
AcDbVertex
100
AcDb2dVertex
 10
254.4407211927137
 20
535.4562977846224
 30
0.0
  0
SEQEND
  5
1E7
330
1D9
100
AcDbEntity
  8
Layer 1
 62
    40
370
    13
  0
POLYLINE
  5
1E8
330
1A8
100
AcDbEntity
  8
Layer 1
 62
    40
370
    13
100
AcDb2dPolyline
 66
     1
 10
0.0
 20
0.0
 30
0.0
  0
VERTEX
  5
1E9
330
1E8
100
AcDbEntity
  8
Layer 1
 62
    40
370
    13
100
AcDbVertex
100
AcDb2dVertex
 10
270.8657306829651
 20
550.2845916448476
 30
0.0
  0
VERTEX
  5
1EA
330
1E8
100
AcDbEntity
  8
Layer 1
 62
    40
370
    13
100
AcDbVertex
100
AcDb2dVertex
 10
235.5103521382015
 20
570.6945861465811
 30
0.0
  0
SEQEND
  5
1EB
330
1E8
100
AcDbEntity
  8
Layer 1
 62
    40
370
    13
  0
POLYLINE
  5
1EC
330
1A8
100
AcDbEntity
  8
Layer 1
 62
    40
370
    13
100
AcDb2dPolyline
 66
     1
 10
0.0
 20
0.0
 30
0.0
  0
VERTEX
  5
1ED
330
1EC
100
AcDbEntity
  8
Layer 1
 62
    40
370
    13
100
AcDbVertex
100
AcDb2dVertex
 10
235.5103521382015
 20
570.6945861465811
 30
0.0
  0
VERTEX
  5
1EE
330
1EC
100
AcDbEntity
  8
Layer 1
 62
    40
370
    13
100
AcDbVertex
100
AcDb2dVertex
 10
231.9747798327703
 20
568.6537546448126
 30
0.0
  0
SEQEND
  5
1EF
330
1EC
100
AcDbEntity
  8
Layer 1
 62
    40
370
    13
  0
POLYLINE
  5
1F0
330
1A8
100
AcDbEntity
  8
Layer 1
 62
    40
370
    13
100
AcDb2dPolyline
 66
     1
 10
0.0
 20
0.0
 30
0.0
  0
VERTEX
  5
1F1
330
1F0
100
AcDbEntity
  8
Layer 1
 62
    40
370
    13
100
AcDbVertex
100
AcDb2dVertex
 10
270.8657306829651
 20
293.073999566409
 30
0.0
  0
VERTEX
  5
1F2
330
1F0
100
AcDbEntity
  8
Layer 1
 62
    40
370
    13
100
AcDbVertex
100
AcDb2dVertex
 10
267.3302014412274
 20
291.0331895964874
 30
0.0
  0
SEQEND
  5
1F3
330
1F0
100
AcDbEntity
  8
Layer 1
 62
    40
370
    13
  0
POLYLINE
  5
1F4
330
1A8
100
AcDbEntity
  8
Layer 1
 62
    40
370
    13
100
AcDb2dPolyline
 66
     1
 10
0.0
 20
0.0
 30
0.0
  0
VERTEX
  5
1F5
330
1F4
100
AcDbEntity
  8
Layer 1
 62
    40
370
    13
100
AcDbVertex
100
AcDb2dVertex
 10
270.8657306829651
 20
293.073999566409
 30
0.0
  0
VERTEX
  5
1F6
330
1F4
100
AcDbEntity
  8
Layer 1
 62
    40
370
    13
100
AcDbVertex
100
AcDb2dVertex
 10
270.8657306829651
 20
550.2845916448476
 30
0.0
  0
SEQEND
  5
1F7
330
1F4
100
AcDbEntity
  8
Layer 1
 62
    40
370
    13
  0
POLYLINE
  5
1F8
330
1A8
100
AcDbEntity
  8
Layer 1
 62
    40
370
    13
100
AcDb2dPolyline
 66
     1
 10
0.0
 20
0.0
 30
0.0
  0
VERTEX
  5
1F9
330
1F8
100
AcDbEntity
  8
Layer 1
 62
    40
370
    13
100
AcDbVertex
100
AcDb2dVertex
 10
270.8657306829651
 20
550.2845916448476
 30
0.0
  0
VERTEX
  5
1FA
330
1F8
100
AcDbEntity
  8
Layer 1
 62
    40
370
    13
100
AcDbVertex
100
AcDb2dVertex
 10
267.3302014412274
 20
548.2434586972242
 30
0.0
  0
SEQEND
  5
1FB
330
1F8
100
AcDbEntity
  8
Layer 1
 62
    40
370
    13
  0
POLYLINE
  5
1FC
330
1A8
100
AcDbEntity
  8
Layer 1
 62
    40
370
    13
100
AcDb2dPolyline
 66
     1
 10
0.0
 20
0.0
 30
0.0
  0
VERTEX
  5
1FD
330
1FC
100
AcDbEntity
  8
Layer 1
 62
    40
370
    13
100
AcDbVertex
100
AcDb2dVertex
 10
254.6022961709719
 20
357.9882758427694
 30
0.0
  0
VERTEX
  5
1FE
330
1FC
100
AcDbEntity
  8
Layer 1
 62
    40
370
    13
100
AcDbVertex
100
AcDb2dVertex
 10
254.5127236883554
 20
359.1217553211102
 30
0.0
  0
VERTEX
  5
1FF
330
1FC
100
AcDbEntity
  8
Layer 1
 62
    40
370
    13
100
AcDbVertex
100
AcDb2dVertex
 10
254.2477527818461
 20
360.3173326455726
 30
0.0
  0
VERTEX
  5
200
330
1FC
100
AcDbEntity
  8
Layer 1
 62
    40
370
    13
100
AcDbVertex
100
AcDb2dVertex
 10
253.8163406997057
 20
361.531944122591
 30
0.0
  0
VERTEX
  5
201
330
1FC
100
AcDbEntity
  8
Layer 1
 62
    40
370
    13
100
AcDbVertex
100
AcDb2dVertex
 10
253.2349377728762
 20
362.7218585713495
 30
0.0
  0
VERTEX
  5
202
330
1FC
100
AcDbEntity
  8
Layer 1
 62
    40
370
    13
100
AcDbVertex
100
AcDb2dVertex
 10
252.52374087364
 20
363.8440553619761
 30
0.0
  0
VERTEX
  5
203
330
1FC
100
AcDbEntity
  8
Layer 1
 62
    40
370
    13
100
AcDbVertex
100
AcDb2dVertex
 10
251.7088466002977
 20
364.8579254314383
 30
0.0
  0
VERTEX
  5
204
330
1FC
100
AcDbEntity
  8
Layer 1
 62
    40
370
    13
100
AcDbVertex
100
AcDb2dVertex
 10
250.8194952007804
 20
365.7268215765119
 30
0.0
  0
VERTEX
  5
205
330
1FC
100
AcDbEntity
  8
Layer 1
 62
    40
370
    13
100
AcDbVertex
100
AcDb2dVertex
 10
249.8881567000367
 20
366.4189627913453
 30
0.0
  0
VERTEX
  5
206
330
1FC
100
AcDbEntity
  8
Layer 1
 62
    40
370
    13
100
AcDbVertex
100
AcDb2dVertex
 10
248.947990142112
 20
366.9100396209209
 30
0.0
  0
VERTEX
  5
207
330
1FC
100
AcDbEntity
  8
Layer 1
 62
    40
370
    13
100
AcDbVertex
100
AcDb2dVertex
 10
248.0335756729396
 20
367.1816853999329
 30
0.0
  0
VERTEX
  5
208
330
1FC
100
AcDbEntity
  8
Layer 1
 62
    40
370
    13
100
AcDbVertex
100
AcDb2dVertex
 10
247.17777089071
 20
367.2243615202564
 30
0.0
  0
VERTEX
  5
209
330
1FC
100
AcDbEntity
  8
Layer 1
 62
    40
370
    13
100
AcDbVertex
100
AcDb2dVertex
 10
246.4111510178547
 20
367.0366899436974
 30
0.0
  0
VERTEX
  5
20A
330
1FC
100
AcDbEntity
  8
Layer 1
 62
    40
370
    13
100
AcDbVertex
100
AcDb2dVertex
 10
245.7617074551916
 20
366.6250010332101
 30
0.0
  0
VERTEX
  5
20B
330
1FC
100
AcDbEntity
  8
Layer 1
 62
    40
370
    13
100
AcDbVertex
100
AcDb2dVertex
 10
245.2529960431009
 20
366.0044532089295
 30
0.0
  0
VERTEX
  5
20C
330
1FC
100
AcDbEntity
  8
Layer 1
 62
    40
370
    13
100
AcDbVertex
100
AcDb2dVertex
 10
244.9034049787352
 20
365.1976549099775
 30
0.0
  0
VERTEX
  5
20D
330
1FC
100
AcDbEntity
  8
Layer 1
 62
    40
370
    13
100
AcDbVertex
100
AcDb2dVertex
 10
244.7252504784542
 20
364.2335018747368
 30
0.0
  0
VERTEX
  5
20E
330
1FC
100
AcDbEntity
  8
Layer 1
 62
    40
370
    13
100
AcDbVertex
100
AcDb2dVertex
 10
244.7252504784542
 20
363.1469618223825
 30
0.0
  0
VERTEX
  5
20F
330
1FC
100
AcDbEntity
  8
Layer 1
 62
    40
370
    13
100
AcDbVertex
100
AcDb2dVertex
 10
244.9034049787352
 20
361.9771365866724
 30
0.0
  0
VERTEX
  5
210
330
1FC
100
AcDbEntity
  8
Layer 1
 62
    40
370
    13
100
AcDbVertex
100
AcDb2dVertex
 10
245.2529960431009
 20
360.7664008420749
 30
0.0
  0
VERTEX
  5
211
330
1FC
100
AcDbEntity
  8
Layer 1
 62
    40
370
    13
100
AcDbVertex
100
AcDb2dVertex
 10
245.7617074551916
 20
359.5585073012527
 30
0.0
  0
VERTEX
  5
212
330
1FC
100
AcDbEntity
  8
Layer 1
 62
    40
370
    13
100
AcDbVertex
100
AcDb2dVertex
 10
246.4111510178547
 20
358.397165613175
 30
0.0
  0
VERTEX
  5
213
330
1FC
100
AcDbEntity
  8
Layer 1
 62
    40
370
    13
100
AcDbVertex
100
AcDb2dVertex
 10
247.17777089071
 20
357.3243628790682
 30
0.0
  0
VERTEX
  5
214
330
1FC
100
AcDbEntity
  8
Layer 1
 62
    40
370
    13
100
AcDbVertex
100
AcDb2dVertex
 10
248.0335756729396
 20
356.3789210186818
 30
0.0
  0
VERTEX
  5
215
330
1FC
100
AcDbEntity
  8
Layer 1
 62
    40
370
    13
100
AcDbVertex
100
AcDb2dVertex
 10
248.947990142112
 20
355.5946880951582
 30
0.0
  0
VERTEX
  5
216
330
1FC
100
AcDbEntity
  8
Layer 1
 62
    40
370
    13
100
AcDbVertex
100
AcDb2dVertex
 10
249.8881567000367
 20
355.0002584010251
 30
0.0
  0
VERTEX
  5
217
330
1FC
100
AcDbEntity
  8
Layer 1
 62
    40
370
    13
100
AcDbVertex
100
AcDb2dVertex
 10
250.8194952007804
 20
354.6174867607671
 30
0.0
  0
VERTEX
  5
218
330
1FC
100
AcDbEntity
  8
Layer 1
 62
    40
370
    13
100
AcDbVertex
100
AcDb2dVertex
 10
251.7088466002977
 20
354.4594430053812
 30
0.0
  0
VERTEX
  5
219
330
1FC
100
AcDbEntity
  8
Layer 1
 62
    40
370
    13
100
AcDbVertex
100
AcDb2dVertex
 10
252.52374087364
 20
354.5321129882732
 30
0.0
  0
VERTEX
  5
21A
330
1FC
100
AcDbEntity
  8
Layer 1
 62
    40
370
    13
100
AcDbVertex
100
AcDb2dVertex
 10
253.2349377728762
 20
354.8333865884583
 30
0.0
  0
VERTEX
  5
21B
330
1FC
100
AcDbEntity
  8
Layer 1
 62
    40
370
    13
100
AcDbVertex
100
AcDb2dVertex
 10
253.8163406997057
 20
355.351615076827
 30
0.0
  0
VERTEX
  5
21C
330
1FC
100
AcDbEntity
  8
Layer 1
 62
    40
370
    13
100
AcDbVertex
100
AcDb2dVertex
 10
254.2477527818461
 20
356.0684748517672
 30
0.0
  0
VERTEX
  5
21D
330
1FC
100
AcDbEntity
  8
Layer 1
 62
    40
370
    13
100
AcDbVertex
100
AcDb2dVertex
 10
254.5127236883554
 20
356.958170760833
 30
0.0
  0
VERTEX
  5
21E
330
1FC
100
AcDbEntity
  8
Layer 1
 62
    40
370
    13
100
AcDbVertex
100
AcDb2dVertex
 10
254.6022961709719
 20
357.9882758427694
 30
0.0
  0
SEQEND
  5
21F
330
1FC
100
AcDbEntity
  8
Layer 1
 62
    40
370
    13
  0
POLYLINE
  5
220
330
1A8
100
AcDbEntity
  8
Layer 1
 62
    40
370
    13
100
AcDb2dPolyline
 66
     1
 10
0.0
 20
0.0
 30
0.0
  0
VERTEX
  5
221
330
220
100
AcDbEntity
  8
Layer 1
 62
    40
370
    13
100
AcDbVertex
100
AcDb2dVertex
 10
254.6022961709719
 20
495.9836425617431
 30
0.0
  0
VERTEX
  5
222
330
220
100
AcDbEntity
  8
Layer 1
 62
    40
370
    13
100
AcDbVertex
100
AcDb2dVertex
 10
254.5127236883554
 20
497.1171220400839
 30
0.0
  0
VERTEX
  5
223
330
220
100
AcDbEntity
  8
Layer 1
 62
    40
370
    13
100
AcDbVertex
100
AcDb2dVertex
 10
254.2477527818461
 20
498.3126993645463
 30
0.0
  0
VERTEX
  5
224
330
220
100
AcDbEntity
  8
Layer 1
 62
    40
370
    13
100
AcDbVertex
100
AcDb2dVertex
 10
253.8163406997057
 20
499.5273108415647
 30
0.0
  0
VERTEX
  5
225
330
220
100
AcDbEntity
  8
Layer 1
 62
    40
370
    13
100
AcDbVertex
100
AcDb2dVertex
 10
253.2349377728762
 20
500.7175913317185
 30
0.0
  0
VERTEX
  5
226
330
220
100
AcDbEntity
  8
Layer 1
 62
    40
370
    13
100
AcDbVertex
100
AcDb2dVertex
 10
252.52374087364
 20
501.839400549103
 30
0.0
  0
VERTEX
  5
227
330
220
100
AcDbEntity
  8
Layer 1
 62
    40
370
    13
100
AcDbVertex
100
AcDb2dVertex
 10
251.7088466002977
 20
502.853292150412
 30
0.0
  0
VERTEX
  5
228
330
220
100
AcDbEntity
  8
Layer 1
 62
    40
370
    13
100
AcDbVertex
100
AcDb2dVertex
 10
250.8194952007804
 20
503.7221882954856
 30
0.0
  0
VERTEX
  5
229
330
220
100
AcDbEntity
  8
Layer 1
 62
    40
370
    13
100
AcDbVertex
100
AcDb2dVertex
 10
249.8881567000367
 20
504.4143079784723
 30
0.0
  0
VERTEX
  5
22A
330
220
100
AcDbEntity
  8
Layer 1
 62
    40
370
    13
100
AcDbVertex
100
AcDb2dVertex
 10
248.947990142112
 20
504.9054063398946
 30
0.0
  0
VERTEX
  5
22B
330
220
100
AcDbEntity
  8
Layer 1
 62
    40
370
    13
100
AcDbVertex
100
AcDb2dVertex
 10
248.0335756729396
 20
505.1770521189066
 30
0.0
  0
VERTEX
  5
22C
330
220
100
AcDbEntity
  8
Layer 1
 62
    40
370
    13
100
AcDbVertex
100
AcDb2dVertex
 10
247.17777089071
 20
505.2197282392301
 30
0.0
  0
VERTEX
  5
22D
330
220
100
AcDbEntity
  8
Layer 1
 62
    40
370
    13
100
AcDbVertex
100
AcDb2dVertex
 10
246.4111510178547
 20
505.0320566626712
 30
0.0
  0
VERTEX
  5
22E
330
220
100
AcDbEntity
  8
Layer 1
 62
    40
370
    13
100
AcDbVertex
100
AcDb2dVertex
 10
245.7617074551916
 20
504.6203677521838
 30
0.0
  0
VERTEX
  5
22F
330
220
100
AcDbEntity
  8
Layer 1
 62
    40
370
    13
100
AcDbVertex
100
AcDb2dVertex
 10
245.2529960431009
 20
503.9998199279032
 30
0.0
  0
VERTEX
  5
230
330
220
100
AcDbEntity
  8
Layer 1
 62
    40
370
    13
100
AcDbVertex
100
AcDb2dVertex
 10
244.9034049787352
 20
503.1930216289512
 30
0.0
  0
VERTEX
  5
231
330
220
100
AcDbEntity
  8
Layer 1
 62
    40
370
    13
100
AcDbVertex
100
AcDb2dVertex
 10
244.7252504784542
 20
502.2288685937105
 30
0.0
  0
VERTEX
  5
232
330
220
100
AcDbEntity
  8
Layer 1
 62
    40
370
    13
100
AcDbVertex
100
AcDb2dVertex
 10
244.7252504784542
 20
501.1423285413562
 30
0.0
  0
VERTEX
  5
233
330
220
100
AcDbEntity
  8
Layer 1
 62
    40
370
    13
100
AcDbVertex
100
AcDb2dVertex
 10
244.9034049787352
 20
499.9725033056461
 30
0.0
  0
VERTEX
  5
234
330
220
100
AcDbEntity
  8
Layer 1
 62
    40
370
    13
100
AcDbVertex
100
AcDb2dVertex
 10
245.2529960431009
 20
498.7617675610486
 30
0.0
  0
VERTEX
  5
235
330
220
100
AcDbEntity
  8
Layer 1
 62
    40
370
    13
100
AcDbVertex
100
AcDb2dVertex
 10
245.7617074551916
 20
497.5538740202264
 30
0.0
  0
VERTEX
  5
236
330
220
100
AcDbEntity
  8
Layer 1
 62
    40
370
    13
100
AcDbVertex
100
AcDb2dVertex
 10
246.4111510178547
 20
496.3925323321487
 30
0.0
  0
VERTEX
  5
237
330
220
100
AcDbEntity
  8
Layer 1
 62
    40
370
    13
100
AcDbVertex
100
AcDb2dVertex
 10
247.17777089071
 20
495.3197295980419
 30
0.0
  0
VERTEX
  5
238
330
220
100
AcDbEntity
  8
Layer 1
 62
    40
370
    13
100
AcDbVertex
100
AcDb2dVertex
 10
248.0335756729396
 20
494.3742662058087
 30
0.0
  0
VERTEX
  5
239
330
220
100
AcDbEntity
  8
Layer 1
 62
    40
370
    13
100
AcDbVertex
100
AcDb2dVertex
 10
248.947990142112
 20
493.5900332822851
 30
0.0
  0
VERTEX
  5
23A
330
220
100
AcDbEntity
  8
Layer 1
 62
    40
370
    13
100
AcDbVertex
100
AcDb2dVertex
 10
249.8881567000367
 20
492.9956251199988
 30
0.0
  0
VERTEX
  5
23B
330
220
100
AcDbEntity
  8
Layer 1
 62
    40
370
    13
100
AcDbVertex
100
AcDb2dVertex
 10
250.8194952007804
 20
492.6128750115876
 30
0.0
  0
VERTEX
  5
23C
330
220
100
AcDbEntity
  8
Layer 1
 62
    40
370
    13
100
AcDbVertex
100
AcDb2dVertex
 10
251.7088466002977
 20
492.4547881925081
 30
0.0
  0
VERTEX
  5
23D
330
220
100
AcDbEntity
  8
Layer 1
 62
    40
370
    13
100
AcDbVertex
100
AcDb2dVertex
 10
252.52374087364
 20
492.5274797072469
 30
0.0
  0
VERTEX
  5
23E
330
220
100
AcDbEntity
  8
Layer 1
 62
    40
370
    13
100
AcDbVertex
100
AcDb2dVertex
 10
253.2349377728762
 20
492.828753307432
 30
0.0
  0
VERTEX
  5
23F
330
220
100
AcDbEntity
  8
Layer 1
 62
    40
370
    13
100
AcDbVertex
100
AcDb2dVertex
 10
253.8163406997057
 20
493.3469817958007
 30
0.0
  0
VERTEX
  5
240
330
220
100
AcDbEntity
  8
Layer 1
 62
    40
370
    13
100
AcDbVertex
100
AcDb2dVertex
 10
254.2477527818461
 20
494.0638200388941
 30
0.0
  0
VERTEX
  5
241
330
220
100
AcDbEntity
  8
Layer 1
 62
    40
370
    13
100
AcDbVertex
100
AcDb2dVertex
 10
254.5127236883554
 20
494.9535159479599
 30
0.0
  0
VERTEX
  5
242
330
220
100
AcDbEntity
  8
Layer 1
 62
    40
370
    13
100
AcDbVertex
100
AcDb2dVertex
 10
254.6022961709719
 20
495.9836425617431
 30
0.0
  0
SEQEND
  5
243
330
220
100
AcDbEntity
  8
Layer 1
 62
    40
370
    13
  0
POLYLINE
  5
244
330
1A8
100
AcDbEntity
  8
Layer 1
 62
    40
370
    13
100
AcDb2dPolyline
 66
     1
 10
0.0
 20
0.0
 30
0.0
  0
VERTEX
  5
245
330
244
100
AcDbEntity
  8
Layer 1
 62
    40
370
    13
100
AcDbVertex
100
AcDb2dVertex
 10
254.6022961709719
 20
317.1613105209449
 30
0.0
  0
VERTEX
  5
246
330
244
100
AcDbEntity
  8
Layer 1
 62
    40
370
    13
100
AcDbVertex
100
AcDb2dVertex
 10
254.5127236883554
 20
318.2944454897371
 30
0.0
  0
VERTEX
  5
247
330
244
100
AcDbEntity
  8
Layer 1
 62
    40
370
    13
100
AcDbVertex
100
AcDb2dVertex
 10
254.2477527818461
 20
319.4903457919013
 30
0.0
  0
VERTEX
  5
248
330
244
100
AcDbEntity
  8
Layer 1
 62
    40
370
    13
100
AcDbVertex
100
AcDb2dVertex
 10
253.8163406997057
 20
320.7049572689197
 30
0.0
  0
VERTEX
  5
249
330
244
100
AcDbEntity
  8
Layer 1
 62
    40
370
    13
100
AcDbVertex
100
AcDb2dVertex
 10
253.2349377728762
 20
321.894893249525
 30
0.0
  0
VERTEX
  5
24A
330
244
100
AcDbEntity
  8
Layer 1
 62
    40
370
    13
100
AcDbVertex
100
AcDb2dVertex
 10
252.52374087364
 20
323.0170685083048
 30
0.0
  0
VERTEX
  5
24B
330
244
100
AcDbEntity
  8
Layer 1
 62
    40
370
    13
100
AcDbVertex
100
AcDb2dVertex
 10
251.7088466002977
 20
324.0309601096138
 30
0.0
  0
VERTEX
  5
24C
330
244
100
AcDbEntity
  8
Layer 1
 62
    40
370
    13
100
AcDbVertex
100
AcDb2dVertex
 10
250.8194952007804
 20
324.899490213292
 30
0.0
  0
VERTEX
  5
24D
330
244
100
AcDbEntity
  8
Layer 1
 62
    40
370
    13
100
AcDbVertex
100
AcDb2dVertex
 10
249.8881567000367
 20
325.5919974695208
 30
0.0
  0
VERTEX
  5
24E
330
244
100
AcDbEntity
  8
Layer 1
 62
    40
370
    13
100
AcDbVertex
100
AcDb2dVertex
 10
248.947990142112
 20
326.0827082577011
 30
0.0
  0
VERTEX
  5
24F
330
244
100
AcDbEntity
  8
Layer 1
 62
    40
370
    13
100
AcDbVertex
100
AcDb2dVertex
 10
248.0335756729396
 20
326.3546985462616
 30
0.0
  0
VERTEX
  5
250
330
244
100
AcDbEntity
  8
Layer 1
 62
    40
370
    13
100
AcDbVertex
100
AcDb2dVertex
 10
247.17777089071
 20
326.3973961984319
 30
0.0
  0
VERTEX
  5
251
330
244
100
AcDbEntity
  8
Layer 1
 62
    40
370
    13
100
AcDbVertex
100
AcDb2dVertex
 10
246.4111510178547
 20
326.2097030900262
 30
0.0
  0
VERTEX
  5
252
330
244
100
AcDbEntity
  8
Layer 1
 62
    40
370
    13
100
AcDbVertex
100
AcDb2dVertex
 10
245.7617074551916
 20
325.7980141795388
 30
0.0
  0
VERTEX
  5
253
330
244
100
AcDbEntity
  8
Layer 1
 62
    40
370
    13
100
AcDbVertex
100
AcDb2dVertex
 10
245.2529960431009
 20
325.1774878871049
 30
0.0
  0
VERTEX
  5
254
330
244
100
AcDbEntity
  8
Layer 1
 62
    40
370
    13
100
AcDbVertex
100
AcDb2dVertex
 10
244.9034049787352
 20
324.370689588153
 30
0.0
  0
VERTEX
  5
255
330
244
100
AcDbEntity
  8
Layer 1
 62
    40
370
    13
100
AcDbVertex
100
AcDb2dVertex
 10
244.7252504784542
 20
323.4065365529123
 30
0.0
  0
VERTEX
  5
256
330
244
100
AcDbEntity
  8
Layer 1
 62
    40
370
    13
100
AcDbVertex
100
AcDb2dVertex
 10
244.7252504784542
 20
322.3196304591627
 30
0.0
  0
VERTEX
  5
257
330
244
100
AcDbEntity
  8
Layer 1
 62
    40
370
    13
100
AcDbVertex
100
AcDb2dVertex
 10
244.9034049787352
 20
321.1501712648479
 30
0.0
  0
VERTEX
  5
258
330
244
100
AcDbEntity
  8
Layer 1
 62
    40
370
    13
100
AcDbVertex
100
AcDb2dVertex
 10
245.2529960431009
 20
319.9394355202504
 30
0.0
  0
VERTEX
  5
259
330
244
100
AcDbEntity
  8
Layer 1
 62
    40
370
    13
100
AcDbVertex
100
AcDb2dVertex
 10
245.7617074551916
 20
318.7315204475814
 30
0.0
  0
VERTEX
  5
25A
330
244
100
AcDbEntity
  8
Layer 1
 62
    40
370
    13
100
AcDbVertex
100
AcDb2dVertex
 10
246.4111510178547
 20
317.5701787595037
 30
0.0
  0
VERTEX
  5
25B
330
244
100
AcDbEntity
  8
Layer 1
 62
    40
370
    13
100
AcDbVertex
100
AcDb2dVertex
 10
247.17777089071
 20
316.4973760253969
 30
0.0
  0
VERTEX
  5
25C
330
244
100
AcDbEntity
  8
Layer 1
 62
    40
370
    13
100
AcDbVertex
100
AcDb2dVertex
 10
248.0335756729396
 20
315.5519341650104
 30
0.0
  0
VERTEX
  5
25D
330
244
100
AcDbEntity
  8
Layer 1
 62
    40
370
    13
100
AcDbVertex
100
AcDb2dVertex
 10
248.947990142112
 20
314.7677227733337
 30
0.0
  0
VERTEX
  5
25E
330
244
100
AcDbEntity
  8
Layer 1
 62
    40
370
    13
100
AcDbVertex
100
AcDb2dVertex
 10
249.8881567000367
 20
314.1732930792006
 30
0.0
  0
VERTEX
  5
25F
330
244
100
AcDbEntity
  8
Layer 1
 62
    40
370
    13
100
AcDbVertex
100
AcDb2dVertex
 10
250.8194952007804
 20
313.790176929394
 30
0.0
  0
VERTEX
  5
260
330
244
100
AcDbEntity
  8
Layer 1
 62
    40
370
    13
100
AcDbVertex
100
AcDb2dVertex
 10
251.7088466002977
 20
313.6324776835567
 30
0.0
  0
VERTEX
  5
261
330
244
100
AcDbEntity
  8
Layer 1
 62
    40
370
    13
100
AcDbVertex
100
AcDb2dVertex
 10
252.52374087364
 20
313.7051476664487
 30
0.0
  0
VERTEX
  5
262
330
244
100
AcDbEntity
  8
Layer 1
 62
    40
370
    13
100
AcDbVertex
100
AcDb2dVertex
 10
253.2349377728762
 20
314.0064212666338
 30
0.0
  0
VERTEX
  5
263
330
244
100
AcDbEntity
  8
Layer 1
 62
    40
370
    13
100
AcDbVertex
100
AcDb2dVertex
 10
253.8163406997057
 20
314.5246497550025
 30
0.0
  0
VERTEX
  5
264
330
244
100
AcDbEntity
  8
Layer 1
 62
    40
370
    13
100
AcDbVertex
100
AcDb2dVertex
 10
254.2477527818461
 20
315.2414879980959
 30
0.0
  0
VERTEX
  5
265
330
244
100
AcDbEntity
  8
Layer 1
 62
    40
370
    13
100
AcDbVertex
100
AcDb2dVertex
 10
254.5127236883554
 20
316.1312054390085
 30
0.0
  0
VERTEX
  5
266
330
244
100
AcDbEntity
  8
Layer 1
 62
    40
370
    13
100
AcDbVertex
100
AcDb2dVertex
 10
254.6022961709719
 20
317.1613105209449
 30
0.0
  0
SEQEND
  5
267
330
244
100
AcDbEntity
  8
Layer 1
 62
    40
370
    13
  0
POLYLINE
  5
268
330
1A8
100
AcDbEntity
  8
Layer 1
 62
    40
370
    13
100
AcDb2dPolyline
 66
     1
 10
0.0
 20
0.0
 30
0.0
  0
VERTEX
  5
269
330
268
100
AcDbEntity
  8
Layer 1
 62
    40
370
    13
100
AcDbVertex
100
AcDb2dVertex
 10
254.6022961709719
 20
536.8106078835676
 30
0.0
  0
VERTEX
  5
26A
330
268
100
AcDbEntity
  8
Layer 1
 62
    40
370
    13
100
AcDbVertex
100
AcDb2dVertex
 10
254.5127236883554
 20
537.9440873619084
 30
0.0
  0
VERTEX
  5
26B
330
268
100
AcDbEntity
  8
Layer 1
 62
    40
370
    13
100
AcDbVertex
100
AcDb2dVertex
 10
254.2477527818461
 20
539.1396646863708
 30
0.0
  0
VERTEX
  5
26C
330
268
100
AcDbEntity
  8
Layer 1
 62
    40
370
    13
100
AcDbVertex
100
AcDb2dVertex
 10
253.8163406997057
 20
540.3542761633892
 30
0.0
  0
VERTEX
  5
26D
330
268
100
AcDbEntity
  8
Layer 1
 62
    40
370
    13
100
AcDbVertex
100
AcDb2dVertex
 10
253.2349377728762
 20
541.544556653543
 30
0.0
  0
VERTEX
  5
26E
330
268
100
AcDbEntity
  8
Layer 1
 62
    40
370
    13
100
AcDbVertex
100
AcDb2dVertex
 10
252.52374087364
 20
542.666710380476
 30
0.0
  0
VERTEX
  5
26F
330
268
100
AcDbEntity
  8
Layer 1
 62
    40
370
    13
100
AcDbVertex
100
AcDb2dVertex
 10
251.7088466002977
 20
543.6802574722366
 30
0.0
  0
VERTEX
  5
270
330
268
100
AcDbEntity
  8
Layer 1
 62
    40
370
    13
100
AcDbVertex
100
AcDb2dVertex
 10
250.8194952007804
 20
544.5491536173101
 30
0.0
  0
VERTEX
  5
271
330
268
100
AcDbEntity
  8
Layer 1
 62
    40
370
    13
100
AcDbVertex
100
AcDb2dVertex
 10
249.8881567000367
 20
545.2413163639903
 30
0.0
  0
VERTEX
  5
272
330
268
100
AcDbEntity
  8
Layer 1
 62
    40
370
    13
100
AcDbVertex
100
AcDb2dVertex
 10
248.947990142112
 20
545.7323716617192
 30
0.0
  0
VERTEX
  5
273
330
268
100
AcDbEntity
  8
Layer 1
 62
    40
370
    13
100
AcDbVertex
100
AcDb2dVertex
 10
248.0335756729396
 20
546.0040174407311
 30
0.0
  0
VERTEX
  5
274
330
268
100
AcDbEntity
  8
Layer 1
 62
    40
370
    13
100
AcDbVertex
100
AcDb2dVertex
 10
247.17777089071
 20
546.0466935610547
 30
0.0
  0
VERTEX
  5
275
330
268
100
AcDbEntity
  8
Layer 1
 62
    40
370
    13
100
AcDbVertex
100
AcDb2dVertex
 10
246.4111510178547
 20
545.8590219844956
 30
0.0
  0
VERTEX
  5
276
330
268
100
AcDbEntity
  8
Layer 1
 62
    40
370
    13
100
AcDbVertex
100
AcDb2dVertex
 10
245.7617074551916
 20
545.4473330740083
 30
0.0
  0
VERTEX
  5
277
330
268
100
AcDbEntity
  8
Layer 1
 62
    40
370
    13
100
AcDbVertex
100
AcDb2dVertex
 10
245.2529960431009
 20
544.8271297592762
 30
0.0
  0
VERTEX
  5
278
330
268
100
AcDbEntity
  8
Layer 1
 62
    40
370
    13
100
AcDbVertex
100
AcDb2dVertex
 10
244.9034049787352
 20
544.0199869507758
 30
0.0
  0
VERTEX
  5
279
330
268
100
AcDbEntity
  8
Layer 1
 62
    40
370
    13
100
AcDbVertex
100
AcDb2dVertex
 10
244.7252504784542
 20
543.055833915535
 30
0.0
  0
VERTEX
  5
27A
330
268
100
AcDbEntity
  8
Layer 1
 62
    40
370
    13
100
AcDbVertex
100
AcDb2dVertex
 10
244.7252504784542
 20
541.9692938631807
 30
0.0
  0
VERTEX
  5
27B
330
268
100
AcDbEntity
  8
Layer 1
 62
    40
370
    13
100
AcDbVertex
100
AcDb2dVertex
 10
244.9034049787352
 20
540.7994686274706
 30
0.0
  0
VERTEX
  5
27C
330
268
100
AcDbEntity
  8
Layer 1
 62
    40
370
    13
100
AcDbVertex
100
AcDb2dVertex
 10
245.2529960431009
 20
539.5887328828732
 30
0.0
  0
VERTEX
  5
27D
330
268
100
AcDbEntity
  8
Layer 1
 62
    40
370
    13
100
AcDbVertex
100
AcDb2dVertex
 10
245.7617074551916
 20
538.380839342051
 30
0.0
  0
VERTEX
  5
27E
330
268
100
AcDbEntity
  8
Layer 1
 62
    40
370
    13
100
AcDbVertex
100
AcDb2dVertex
 10
246.4111510178547
 20
537.2194976539732
 30
0.0
  0
VERTEX
  5
27F
330
268
100
AcDbEntity
  8
Layer 1
 62
    40
370
    13
100
AcDbVertex
100
AcDb2dVertex
 10
247.17777089071
 20
536.1466949198665
 30
0.0
  0
VERTEX
  5
280
330
268
100
AcDbEntity
  8
Layer 1
 62
    40
370
    13
100
AcDbVertex
100
AcDb2dVertex
 10
248.0335756729396
 20
535.2012315276332
 30
0.0
  0
VERTEX
  5
281
330
268
100
AcDbEntity
  8
Layer 1
 62
    40
370
    13
100
AcDbVertex
100
AcDb2dVertex
 10
248.947990142112
 20
534.4169986041096
 30
0.0
  0
VERTEX
  5
282
330
268
100
AcDbEntity
  8
Layer 1
 62
    40
370
    13
100
AcDbVertex
100
AcDb2dVertex
 10
249.8881567000367
 20
533.8229349513718
 30
0.0
  0
VERTEX
  5
283
330
268
100
AcDbEntity
  8
Layer 1
 62
    40
370
    13
100
AcDbVertex
100
AcDb2dVertex
 10
250.8194952007804
 20
533.4398403334121
 30
0.0
  0
VERTEX
  5
284
330
268
100
AcDbEntity
  8
Layer 1
 62
    40
370
    13
100
AcDbVertex
100
AcDb2dVertex
 10
251.7088466002977
 20
533.2817965780263
 30
0.0
  0
VERTEX
  5
285
330
268
100
AcDbEntity
  8
Layer 1
 62
    40
370
    13
100
AcDbVertex
100
AcDb2dVertex
 10
252.52374087364
 20
533.35478953862
 30
0.0
  0
VERTEX
  5
286
330
268
100
AcDbEntity
  8
Layer 1
 62
    40
370
    13
100
AcDbVertex
100
AcDb2dVertex
 10
253.2349377728762
 20
533.6557186292565
 30
0.0
  0
VERTEX
  5
287
330
268
100
AcDbEntity
  8
Layer 1
 62
    40
370
    13
100
AcDbVertex
100
AcDb2dVertex
 10
253.8163406997057
 20
534.1739471176253
 30
0.0
  0
VERTEX
  5
288
330
268
100
AcDbEntity
  8
Layer 1
 62
    40
370
    13
100
AcDbVertex
100
AcDb2dVertex
 10
254.2477527818461
 20
534.8911729339607
 30
0.0
  0
VERTEX
  5
289
330
268
100
AcDbEntity
  8
Layer 1
 62
    40
370
    13
100
AcDbVertex
100
AcDb2dVertex
 10
254.5127236883554
 20
535.780524333478
 30
0.0
  0
VERTEX
  5
28A
330
268
100
AcDbEntity
  8
Layer 1
 62
    40
370
    13
100
AcDbVertex
100
AcDb2dVertex
 10
254.6022961709719
 20
536.8106078835676
 30
0.0
  0
SEQEND
  5
28B
330
268
100
AcDbEntity
  8
Layer 1
 62
    40
370
    13
  0
POLYLINE
  5
28C
330
1A8
100
AcDbEntity
  8
Layer 1
 62
    40
370
    13
100
AcDb2dPolyline
 66
     1
 10
0.0
 20
0.0
 30
0.0
  0
VERTEX
  5
28D
330
28C
100
AcDbEntity
  8
Layer 1
 62
    40
370
    13
100
AcDbVertex
100
AcDb2dVertex
 10
231.9747798327703
 20
568.6537546448126
 30
0.0
  0
VERTEX
  5
28E
330
28C
100
AcDbEntity
  8
Layer 1
 62
    40
370
    13
100
AcDbVertex
100
AcDb2dVertex
 10
231.9747798327703
 20
311.4431410345272
 30
0.0
  0
SEQEND
  5
28F
330
28C
100
AcDbEntity
  8
Layer 1
 62
    40
370
    13
  0
POLYLINE
  5
290
330
1A8
100
AcDbEntity
  8
Layer 1
 62
    40
370
    13
100
AcDb2dPolyline
 66
     1
 10
0.0
 20
0.0
 30
0.0
  0
VERTEX
  5
291
330
290
100
AcDbEntity
  8
Layer 1
 62
    40
370
    13
100
AcDbVertex
100
AcDb2dVertex
 10
231.9747798327703
 20
311.4431410345272
 30
0.0
  0
VERTEX
  5
292
330
290
100
AcDbEntity
  8
Layer 1
 62
    40
370
    13
100
AcDbVertex
100
AcDb2dVertex
 10
267.3302014412274
 20
291.0331895964874
 30
0.0
  0
SEQEND
  5
293
330
290
100
AcDbEntity
  8
Layer 1
 62
    40
370
    13
  0
POLYLINE
  5
294
330
1A8
100
AcDbEntity
  8
Layer 1
 62
    40
370
    13
100
AcDb2dPolyline
 66
     1
 10
0.0
 20
0.0
 30
0.0
  0
VERTEX
  5
295
330
294
100
AcDbEntity
  8
Layer 1
 62
    40
370
    13
100
AcDbVertex
100
AcDb2dVertex
 10
267.3302014412274
 20
291.0331895964874
 30
0.0
  0
VERTEX
  5
296
330
294
100
AcDbEntity
  8
Layer 1
 62
    40
370
    13
100
AcDbVertex
100
AcDb2dVertex
 10
267.3302014412274
 20
548.2434586972242
 30
0.0
  0
SEQEND
  5
297
330
294
100
AcDbEntity
  8
Layer 1
 62
    40
370
    13
  0
POLYLINE
  5
298
330
1A8
100
AcDbEntity
  8
Layer 1
 62
    40
370
    13
100
AcDb2dPolyline
 66
     1
 10
0.0
 20
0.0
 30
0.0
  0
VERTEX
  5
299
330
298
100
AcDbEntity
  8
Layer 1
 62
    40
370
    13
100
AcDbVertex
100
AcDb2dVertex
 10
267.3302014412274
 20
548.2434586972242
 30
0.0
  0
VERTEX
  5
29A
330
298
100
AcDbEntity
  8
Layer 1
 62
    40
370
    13
100
AcDbVertex
100
AcDb2dVertex
 10
231.9747798327703
 20
568.6537546448126
 30
0.0
  0
SEQEND
  5
29B
330
298
100
AcDbEntity
  8
Layer 1
 62
    40
370
    13
  0
ENDBLK
  5
1AB
330
1A8
100
AcDbEntity
  8
0
100
AcDbBlockEnd
  0
BLOCK
  5
29E
330
29C
100
AcDbEntity
  8
0
100
AcDbBlockBegin
  2
block 8
 70
     0
 10
0.0
 20
0.0
 30
0.0
  3
block 8
  1

  0
POLYLINE
  5
2A0
330
29C
100
AcDbEntity
  8
Layer 1
370
     0
100
AcDb2dPolyline
 66
     1
 10
0.0
 20
0.0
 30
0.0
  0
VERTEX
  5
2A1
330
2A0
100
AcDbEntity
  8
Layer 1
370
     0
100
AcDbVertex
100
AcDb2dVertex
 10
257.2838723693051
 20
383.3634569264589
 30
0.0
  0
VERTEX
  5
2A2
330
2A0
100
AcDbEntity
  8
Layer 1
370
     0
100
AcDbVertex
100
AcDb2dVertex
 10
257.2838723693051
 20
404.005265869318
 30
0.0
  0
VERTEX
  5
2A3
330
2A0
100
AcDbEntity
  8
Layer 1
370
     0
100
AcDbVertex
100
AcDb2dVertex
 10
259.2600652670297
 20
404.005265869318
 30
0.0
  0
VERTEX
  5
2A4
330
2A0
100
AcDbEntity
  8
Layer 1
370
     0
100
AcDbVertex
100
AcDb2dVertex
 10
259.2600652670297
 20
408.6630349653757
 30
0.0
  0
VERTEX
  5
2A5
330
2A0
100
AcDbEntity
  8
Layer 1
370
     0
100
AcDbVertex
100
AcDb2dVertex
 10
254.6022961709719
 20
408.6630349653757
 30
0.0
  0
VERTEX
  5
2A6
330
2A0
100
AcDbEntity
  8
Layer 1
370
     0
100
AcDbVertex
100
AcDb2dVertex
 10
254.6022961709719
 20
404.005265869318
 30
0.0
  0
VERTEX
  5
2A7
330
2A0
100
AcDbEntity
  8
Layer 1
370
     0
100
AcDbVertex
100
AcDb2dVertex
 10
256.578316813926
 20
404.005265869318
 30
0.0
  0
VERTEX
  5
2A8
330
2A0
100
AcDbEntity
  8
Layer 1
370
     0
100
AcDbVertex
100
AcDb2dVertex
 10
256.578316813926
 20
382.6579013710797
 30
0.0
  0
VERTEX
  5
2A9
330
2A0
100
AcDbEntity
  8
Layer 1
370
     0
100
AcDbVertex
100
AcDb2dVertex
 10
355.6337692631208
 20
382.6579013710797
 30
0.0
  0
VERTEX
  5
2AA
330
2A0
100
AcDbEntity
  8
Layer 1
370
     0
100
AcDbVertex
100
AcDb2dVertex
 10
355.6337692631208
 20
383.3634569264589
 30
0.0
  0
VERTEX
  5
2AB
330
2A0
100
AcDbEntity
  8
Layer 1
370
     0
100
AcDbVertex
100
AcDb2dVertex
 10
257.2838723693051
 20
383.3634569264589
 30
0.0
  0
SEQEND
  5
2AD
330
2A0
100
AcDbEntity
  8
Layer 1
370
     0
  0
HATCH
  5
2AC
330
29C
100
AcDbEntity
  8
Layer 1
 62
     7
100
AcDbHatch
 10
0.0
 20
0.0
 30
0.0
210
0.0
220
0.0
230
1.0
  2
SOLID
 70
     1
 71
     0
 91
        1
 92
        1
 93
       10
 72
     1
 10
257.2838723693051
 20
383.3634569264589
 11
257.2838723693051
 21
404.005265869318
 72
     1
 10
257.2838723693051
 20
404.005265869318
 11
259.2600652670297
 21
404.005265869318
 72
     1
 10
259.2600652670297
 20
404.005265869318
 11
259.2600652670297
 21
408.6630349653757
 72
     1
 10
259.2600652670297
 20
408.6630349653757
 11
254.6022961709719
 21
408.6630349653757
 72
     1
 10
254.6022961709719
 20
408.6630349653757
 11
254.6022961709719
 21
404.005265869318
 72
     1
 10
254.6022961709719
 20
404.005265869318
 11
256.578316813926
 21
404.005265869318
 72
     1
 10
256.578316813926
 20
404.005265869318
 11
256.578316813926
 21
382.6579013710797
 72
     1
 10
256.578316813926
 20
382.6579013710797
 11
355.6337692631208
 21
382.6579013710797
 72
     1
 10
355.6337692631208
 20
382.6579013710797
 11
355.6337692631208
 21
383.3634569264589
 72
     1
 10
355.6337692631208
 20
383.3634569264589
 11
257.2838723693051
 21
383.3634569264589
 97
        0
 75
     2
 76
     1
 98
        0
  0
INSERT
  5
2AF
330
29C
100
AcDbEntity
  8
Layer 1
100
AcDbBlockReference
  2
block 9
 10
0.0
 20
0.0
 30
0.0
  0
ENDBLK
  5
29F
330
29C
100
AcDbEntity
  8
0
100
AcDbBlockEnd
  0
BLOCK
  5
2B0
330
2AE
100
AcDbEntity
  8
0
100
AcDbBlockBegin
  2
block 9
 70
     0
 10
0.0
 20
0.0
 30
0.0
  3
block 9
  1

  0
SPLINE
  5
2B2
330
2AE
100
AcDbEntity
  8
Layer 1
370
     0
100
AcDbSpline
210
0.0
220
0.0
230
1.0
 70
    11
 71
     3
 72
    26
 73
    22
 74
     0
 42
0.0000000001
 43
0.0000000001
 12
1.0
 22
0.0
 32
0.0
 13
1.0
 23
0.0
 33
0.0
 40
0.0
 40
0.0
 40
0.0
 40
0.0
 40
1.0
 40
1.0
 40
1.0
 40
2.0
 40
2.0
 40
2.0
 40
3.0
 40
3.0
 40
3.0
 40
4.0
 40
4.0
 40
4.0
 40
5.0
 40
5.0
 40
5.0
 40
6.0
 40
6.0
 40
6.0
 40
7.0
 40
7.0
 40
7.0
 40
7.0
 10
361.3791475876066
 20
385.8968586274842
 30
0.0
 10
362.5646049440811
 20
385.8968586274842
 30
0.0
 10
363.2505234551944
 20
385.2278210842486
 30
0.0
 10
363.2505234551944
 20
384.2032496869353
 30
0.0
 10
363.2505234551944
 20
383.5342121436998
 30
0.0
 10
362.8098957426309
 20
383.1108099085626
 30
0.0
 10
362.5053493017348
 20
382.9585366881146
 30
0.0
 10
362.8777641236903
 20
382.7890379902403
 30
0.0
 10
363.343541033296
 20
382.4080104295716
 30
0.0
 10
363.343541033296
 20
381.6039251433143
 30
0.0
 10
363.343541033296
 20
380.4777234291861
 30
0.0
 10
362.5646049440811
 20
379.8679415282969
 30
0.0
 10
361.4890461335861
 20
379.8679415282969
 30
0.0
 10
361.4890461335861
 20
379.8679415282969
 30
0.0
 10
358.9658582001891
 20
379.8679415282969
 30
0.0
 10
358.9658582001891
 20
379.8679415282969
 30
0.0
 10
358.9658582001891
 20
379.8679415282969
 30
0.0
 10
358.9658582001891
 20
385.8968586274842
 30
0.0
 10
358.9658582001891
 20
385.8968586274842
 30
0.0
 10
358.9658582001891
 20
385.8968586274842
 30
0.0
 10
361.3791475876066
 20
385.8968586274842
 30
0.0
 10
361.3791475876066
 20
385.8968586274842
 30
0.0
  0
SPLINE
  5
2B3
330
2AE
100
AcDbEntity
  8
Layer 1
370
     0
100
AcDbSpline
210
0.0
220
0.0
230
1.0
 70
    11
 71
     3
 72
    20
 73
    16
 74
     0
 42
0.0000000001
 43
0.0000000001
 12
1.0
 22
0.0
 32
0.0
 13
1.0
 23
0.0
 33
0.0
 40
0.0
 40
0.0
 40
0.0
 40
0.0
 40
1.0
 40
1.0
 40
1.0
 40
2.0
 40
2.0
 40
2.0
 40
3.0
 40
3.0
 40
3.0
 40
4.0
 40
4.0
 40
4.0
 40
5.0
 40
5.0
 40
5.0
 40
5.0
 10
360.1427028179505
 20
384.84679352358
 30
0.0
 10
360.1427028179505
 20
384.84679352358
 30
0.0
 10
360.1427028179505
 20
383.4498073043112
 30
0.0
 10
360.1427028179505
 20
383.4498073043112
 30
0.0
 10
360.1427028179505
 20
383.4498073043112
 30
0.0
 10
361.3030109773826
 20
383.4498073043112
 30
0.0
 10
361.3030109773826
 20
383.4498073043112
 30
0.0
 10
361.8025498227438
 20
383.4498073043112
 30
0.0
 10
362.0733343278845
 20
383.7292045481649
 30
0.0
 10
362.0733343278845
 20
384.1526067833021
 30
0.0
 10
362.0733343278845
 20
384.5673962797262
 30
0.0
 10
361.8025498227438
 20
384.84679352358
 30
0.0
 10
361.3030109773826
 20
384.84679352358
 30
0.0
 10
361.3030109773826
 20
384.84679352358
 30
0.0
 10
360.1427028179505
 20
384.84679352358
 30
0.0
 10
360.1427028179505
 20
384.84679352358
 30
0.0
  0
SPLINE
  5
2B4
330
2AE
100
AcDbEntity
  8
Layer 1
370
     0
100
AcDbSpline
210
0.0
220
0.0
230
1.0
 70
    11
 71
     3
 72
    20
 73
    16
 74
     0
 42
0.0000000001
 43
0.0000000001
 12
1.0
 22
0.0
 32
0.0
 13
1.0
 23
0.0
 33
0.0
 40
0.0
 40
0.0
 40
0.0
 40
0.0
 40
1.0
 40
1.0
 40
1.0
 40
2.0
 40
2.0
 40
2.0
 40
3.0
 40
3.0
 40
3.0
 40
4.0
 40
4.0
 40
4.0
 40
5.0
 40
5.0
 40
5.0
 40
5.0
 10
360.1427028179505
 20
382.399742200407
 30
0.0
 10
360.1427028179505
 20
382.399742200407
 30
0.0
 10
360.1427028179505
 20
380.9180066322011
 30
0.0
 10
360.1427028179505
 20
380.9180066322011
 30
0.0
 10
360.1427028179505
 20
380.9180066322011
 30
0.0
 10
361.3791475876066
 20
380.9180066322011
 30
0.0
 10
361.3791475876066
 20
380.9180066322011
 30
0.0
 10
361.9041801395587
 20
380.9180066322011
 30
0.0
 10
362.1666964155347
 20
381.2397785505234
 30
0.0
 10
362.1666964155347
 20
381.6631807856606
 30
0.0
 10
362.1666964155347
 20
382.0779702820847
 30
0.0
 10
361.9041801395587
 20
382.399742200407
 30
0.0
 10
361.3791475876066
 20
382.399742200407
 30
0.0
 10
361.3791475876066
 20
382.399742200407
 30
0.0
 10
360.1427028179505
 20
382.399742200407
 30
0.0
 10
360.1427028179505
 20
382.399742200407
 30
0.0
  0
HATCH
  5
2B5
330
2AE
100
AcDbEntity
  8
Layer 1
 62
     7
100
AcDbHatch
 10
0.0
 20
0.0
 30
0.0
210
0.0
220
0.0
230
1.0
  2
SOLID
 70
     1
 71
     0
 91
        3
 92
        1
 93
        1
 72
     4
 94
        3
 73
     0
 74
     1
 95
       26
 96
       22
 40
0.0
 40
0.0
 40
0.0
 40
0.0
 40
1.0
 40
1.0
 40
1.0
 40
2.0
 40
2.0
 40
2.0
 40
3.0
 40
3.0
 40
3.0
 40
4.0
 40
4.0
 40
4.0
 40
5.0
 40
5.0
 40
5.0
 40
6.0
 40
6.0
 40
6.0
 40
7.0
 40
7.0
 40
7.0
 40
7.0
 10
361.3791475876066
 20
385.8968586274842
 10
362.5646049440811
 20
385.8968586274842
 10
363.2505234551944
 20
385.2278210842486
 10
363.2505234551944
 20
384.2032496869353
 10
363.2505234551944
 20
383.5342121436998
 10
362.8098957426309
 20
383.1108099085626
 10
362.5053493017348
 20
382.9585366881146
 10
362.8777641236903
 20
382.7890379902403
 10
363.343541033296
 20
382.4080104295716
 10
363.343541033296
 20
381.6039251433143
 10
363.343541033296
 20
380.4777234291861
 10
362.5646049440811
 20
379.8679415282969
 10
361.4890461335861
 20
379.8679415282969
 10
361.4890461335861
 20
379.8679415282969
 10
358.9658582001891
 20
379.8679415282969
 10
358.9658582001891
 20
379.8679415282969
 10
358.9658582001891
 20
379.8679415282969
 10
358.9658582001891
 20
385.8968586274842
 10
358.9658582001891
 20
385.8968586274842
 10
358.9658582001891
 20
385.8968586274842
 10
361.3791475876066
 20
385.8968586274842
 10
361.3791475876066
 20
385.8968586274842
 97
        0
 92
        1
 93
        1
 72
     4
 94
        3
 73
     0
 74
     1
 95
       20
 96
       16
 40
0.0
 40
0.0
 40
0.0
 40
0.0
 40
1.0
 40
1.0
 40
1.0
 40
2.0
 40
2.0
 40
2.0
 40
3.0
 40
3.0
 40
3.0
 40
4.0
 40
4.0
 40
4.0
 40
5.0
 40
5.0
 40
5.0
 40
5.0
 10
360.1427028179505
 20
384.84679352358
 10
360.1427028179505
 20
384.84679352358
 10
360.1427028179505
 20
383.4498073043112
 10
360.1427028179505
 20
383.4498073043112
 10
360.1427028179505
 20
383.4498073043112
 10
361.3030109773826
 20
383.4498073043112
 10
361.3030109773826
 20
383.4498073043112
 10
361.8025498227438
 20
383.4498073043112
 10
362.0733343278845
 20
383.7292045481649
 10
362.0733343278845
 20
384.1526067833021
 10
362.0733343278845
 20
384.5673962797262
 10
361.8025498227438
 20
384.84679352358
 10
361.3030109773826
 20
384.84679352358
 10
361.3030109773826
 20
384.84679352358
 10
360.1427028179505
 20
384.84679352358
 10
360.1427028179505
 20
384.84679352358
 97
        0
 92
        1
 93
        1
 72
     4
 94
        3
 73
     0
 74
     1
 95
       20
 96
       16
 40
0.0
 40
0.0
 40
0.0
 40
0.0
 40
1.0
 40
1.0
 40
1.0
 40
2.0
 40
2.0
 40
2.0
 40
3.0
 40
3.0
 40
3.0
 40
4.0
 40
4.0
 40
4.0
 40
5.0
 40
5.0
 40
5.0
 40
5.0
 10
360.1427028179505
 20
382.399742200407
 10
360.1427028179505
 20
382.399742200407
 10
360.1427028179505
 20
380.9180066322011
 10
360.1427028179505
 20
380.9180066322011
 10
360.1427028179505
 20
380.9180066322011
 10
361.3791475876066
 20
380.9180066322011
 10
361.3791475876066
 20
380.9180066322011
 10
361.9041801395587
 20
380.9180066322011
 10
362.1666964155347
 20
381.2397785505234
 10
362.1666964155347
 20
381.6631807856606
 10
362.1666964155347
 20
382.0779702820847
 10
361.9041801395587
 20
382.399742200407
 10
361.3791475876066
 20
382.399742200407
 10
361.3791475876066
 20
382.399742200407
 10
360.1427028179505
 20
382.399742200407
 10
360.1427028179505
 20
382.399742200407
 97
        0
 75
     2
 76
     1
 98
        0
  0
SPLINE
  5
2B6
330
2AE
100
AcDbEntity
  8
Layer 1
370
     0
100
AcDbSpline
210
0.0
220
0.0
230
1.0
 70
    11
 71
     3
 72
    29
 73
    25
 74
     0
 42
0.0000000001
 43
0.0000000001
 12
1.0
 22
0.0
 32
0.0
 13
1.0
 23
0.0
 33
0.0
 40
0.0
 40
0.0
 40
0.0
 40
0.0
 40
1.0
 40
1.0
 40
1.0
 40
2.0
 40
2.0
 40
2.0
 40
3.0
 40
3.0
 40
3.0
 40
4.0
 40
4.0
 40
4.0
 40
5.0
 40
5.0
 40
5.0
 40
6.0
 40
6.0
 40
6.0
 40
7.0
 40
7.0
 40
7.0
 40
8.0
 40
8.0
 40
8.0
 40
8.0
 10
368.1356688532786
 20
385.3125704331858
 30
0.0
 10
368.7368380154547
 20
384.7196695001743
 30
0.0
 10
368.7451062446193
 20
384.033750989061
 30
0.0
 10
368.7451062446193
 20
382.8824000778905
 30
0.0
 10
368.7451062446193
 20
381.7307046571715
 30
0.0
 10
368.7368380154547
 20
381.0447861460582
 30
0.0
 10
368.1356688532786
 20
380.4522297225953
 30
0.0
 10
367.720534847306
 20
380.0457084553358
 30
0.0
 10
367.2127277727802
 20
379.8172986246637
 30
0.0
 10
366.5181965229538
 20
379.8172986246637
 30
0.0
 10
365.8240097826759
 20
379.8172986246637
 30
0.0
 10
365.3158581986016
 20
380.0457084553358
 30
0.0
 10
364.9010687021776
 20
380.4522297225953
 30
0.0
 10
364.2998995400014
 20
381.0533988847714
 30
0.0
 10
364.2912868012883
 20
381.7307046571715
 30
0.0
 10
364.2912868012883
 20
382.8824000778905
 30
0.0
 10
364.2912868012883
 20
384.033750989061
 30
0.0
 10
364.2998995400014
 20
384.7114012710097
 30
0.0
 10
364.9010687021776
 20
385.3125704331858
 30
0.0
 10
365.3158581986016
 20
385.7187471908967
 30
0.0
 10
365.8240097826759
 20
385.9475015311173
 30
0.0
 10
366.5181965229538
 20
385.9475015311173
 30
0.0
 10
367.2127277727802
 20
385.9475015311173
 30
0.0
 10
367.720534847306
 20
385.7187471908967
 30
0.0
 10
368.1356688532786
 20
385.3125704331858
 30
0.0
  0
SPLINE
  5
2B7
330
2AE
100
AcDbEntity
  8
Layer 1
370
     0
100
AcDbSpline
210
0.0
220
0.0
230
1.0
 70
    11
 71
     3
 72
    29
 73
    25
 74
     0
 42
0.0000000001
 43
0.0000000001
 12
1.0
 22
0.0
 32
0.0
 13
1.0
 23
0.0
 33
0.0
 40
0.0
 40
0.0
 40
0.0
 40
0.0
 40
1.0
 40
1.0
 40
1.0
 40
2.0
 40
2.0
 40
2.0
 40
3.0
 40
3.0
 40
3.0
 40
4.0
 40
4.0
 40
4.0
 40
5.0
 40
5.0
 40
5.0
 40
6.0
 40
6.0
 40
6.0
 40
7.0
 40
7.0
 40
7.0
 40
8.0
 40
8.0
 40
8.0
 40
8.0
 10
365.7647541403297
 20
384.5756645088908
 30
0.0
 10
365.5359998001091
 20
384.3217609716279
 30
0.0
 10
365.4681314190497
 20
384.033750989061
 30
0.0
 10
365.4681314190497
 20
382.8824000778905
 30
0.0
 10
365.4681314190497
 20
381.7307046571715
 30
0.0
 10
365.5359998001091
 20
381.4513074133177
 30
0.0
 10
365.7647541403297
 20
381.1974038760548
 30
0.0
 10
365.9339083286554
 20
381.0024114715897
 30
0.0
 10
366.1964246046315
 20
380.8670192190194
 30
0.0
 10
366.5181965229538
 20
380.8670192190194
 30
0.0
 10
366.8399684412761
 20
380.8670192190194
 30
0.0
 10
367.1024847172522
 20
381.0024114715897
 30
0.0
 10
367.2719834151264
 20
381.1974038760548
 30
0.0
 10
367.5003932457985
 20
381.4513074133177
 30
0.0
 10
367.568261626858
 20
381.7307046571715
 30
0.0
 10
367.568261626858
 20
382.8824000778905
 30
0.0
 10
367.568261626858
 20
384.033750989061
 30
0.0
 10
367.5003932457985
 20
384.3217609716279
 30
0.0
 10
367.2719834151264
 20
384.5756645088908
 30
0.0
 10
367.1024847172522
 20
384.770656913356
 30
0.0
 10
366.8399684412761
 20
384.8974364272132
 30
0.0
 10
366.5181965229538
 20
384.8974364272132
 30
0.0
 10
366.1964246046315
 20
384.8974364272132
 30
0.0
 10
365.9339083286554
 20
384.770656913356
 30
0.0
 10
365.7647541403297
 20
384.5756645088908
 30
0.0
  0
HATCH
  5
2B8
330
2AE
100
AcDbEntity
  8
Layer 1
 62
     7
100
AcDbHatch
 10
0.0
 20
0.0
 30
0.0
210
0.0
220
0.0
230
1.0
  2
SOLID
 70
     1
 71
     0
 91
        2
 92
        1
 93
        1
 72
     4
 94
        3
 73
     0
 74
     1
 95
       29
 96
       25
 40
0.0
 40
0.0
 40
0.0
 40
0.0
 40
1.0
 40
1.0
 40
1.0
 40
2.0
 40
2.0
 40
2.0
 40
3.0
 40
3.0
 40
3.0
 40
4.0
 40
4.0
 40
4.0
 40
5.0
 40
5.0
 40
5.0
 40
6.0
 40
6.0
 40
6.0
 40
7.0
 40
7.0
 40
7.0
 40
8.0
 40
8.0
 40
8.0
 40
8.0
 10
368.1356688532786
 20
385.3125704331858
 10
368.7368380154547
 20
384.7196695001743
 10
368.7451062446193
 20
384.033750989061
 10
368.7451062446193
 20
382.8824000778905
 10
368.7451062446193
 20
381.7307046571715
 10
368.7368380154547
 20
381.0447861460582
 10
368.1356688532786
 20
380.4522297225953
 10
367.720534847306
 20
380.0457084553358
 10
367.2127277727802
 20
379.8172986246637
 10
366.5181965229538
 20
379.8172986246637
 10
365.8240097826759
 20
379.8172986246637
 10
365.3158581986016
 20
380.0457084553358
 10
364.9010687021776
 20
380.4522297225953
 10
364.2998995400014
 20
381.0533988847714
 10
364.2912868012883
 20
381.7307046571715
 10
364.2912868012883
 20
382.8824000778905
 10
364.2912868012883
 20
384.033750989061
 10
364.2998995400014
 20
384.7114012710097
 10
364.9010687021776
 20
385.3125704331858
 10
365.3158581986016
 20
385.7187471908967
 10
365.8240097826759
 20
385.9475015311173
 10
366.5181965229538
 20
385.9475015311173
 10
367.2127277727802
 20
385.9475015311173
 10
367.720534847306
 20
385.7187471908967
 10
368.1356688532786
 20
385.3125704331858
 97
        0
 92
        1
 93
        1
 72
     4
 94
        3
 73
     0
 74
     1
 95
       29
 96
       25
 40
0.0
 40
0.0
 40
0.0
 40
0.0
 40
1.0
 40
1.0
 40
1.0
 40
2.0
 40
2.0
 40
2.0
 40
3.0
 40
3.0
 40
3.0
 40
4.0
 40
4.0
 40
4.0
 40
5.0
 40
5.0
 40
5.0
 40
6.0
 40
6.0
 40
6.0
 40
7.0
 40
7.0
 40
7.0
 40
8.0
 40
8.0
 40
8.0
 40
8.0
 10
365.7647541403297
 20
384.5756645088908
 10
365.5359998001091
 20
384.3217609716279
 10
365.4681314190497
 20
384.033750989061
 10
365.4681314190497
 20
382.8824000778905
 10
365.4681314190497
 20
381.7307046571715
 10
365.5359998001091
 20
381.4513074133177
 10
365.7647541403297
 20
381.1974038760548
 10
365.9339083286554
 20
381.0024114715897
 10
366.1964246046315
 20
380.8670192190194
 10
366.5181965229538
 20
380.8670192190194
 10
366.8399684412761
 20
380.8670192190194
 10
367.1024847172522
 20
381.0024114715897
 10
367.2719834151264
 20
381.1974038760548
 10
367.5003932457985
 20
381.4513074133177
 10
367.568261626858
 20
381.7307046571715
 10
367.568261626858
 20
382.8824000778905
 10
367.568261626858
 20
384.033750989061
 10
367.5003932457985
 20
384.3217609716279
 10
367.2719834151264
 20
384.5756645088908
 10
367.1024847172522
 20
384.770656913356
 10
366.8399684412761
 20
384.8974364272132
 10
366.5181965229538
 20
384.8974364272132
 10
366.1964246046315
 20
384.8974364272132
 10
365.9339083286554
 20
384.770656913356
 10
365.7647541403297
 20
384.5756645088908
 97
        0
 75
     2
 76
     1
 98
        0
  0
POLYLINE
  5
2B9
330
2AE
100
AcDbEntity
  8
Layer 1
370
     0
100
AcDb2dPolyline
 66
     1
 10
0.0
 20
0.0
 30
0.0
  0
VERTEX
  5
2BA
330
2B9
100
AcDbEntity
  8
Layer 1
370
     0
100
AcDbVertex
100
AcDb2dVertex
 10
375.0358506006855
 20
379.8679415282969
 30
0.0
  0
VERTEX
  5
2BB
330
2B9
100
AcDbEntity
  8
Layer 1
370
     0
100
AcDbVertex
100
AcDb2dVertex
 10
374.0453856486762
 20
379.8679415282969
 30
0.0
  0
VERTEX
  5
2BC
330
2B9
100
AcDbEntity
  8
Layer 1
370
     0
100
AcDbVertex
100
AcDb2dVertex
 10
372.9360649024257
 20
383.5173311758221
 30
0.0
  0
VERTEX
  5
2BD
330
2B9
100
AcDbEntity
  8
Layer 1
370
     0
100
AcDbVertex
100
AcDb2dVertex
 10
371.8353568948884
 20
379.8679415282969
 30
0.0
  0
VERTEX
  5
2BE
330
2B9
100
AcDbEntity
  8
Layer 1
370
     0
100
AcDbVertex
100
AcDb2dVertex
 10
370.8531601720437
 20
379.8679415282969
 30
0.0
  0
VERTEX
  5
2BF
330
2B9
100
AcDbEntity
  8
Layer 1
370
     0
100
AcDbVertex
100
AcDb2dVertex
 10
369.2356878417189
 20
385.8968586274842
 30
0.0
  0
VERTEX
  5
2C0
330
2B9
100
AcDbEntity
  8
Layer 1
370
     0
100
AcDbVertex
100
AcDb2dVertex
 10
370.4635198726619
 20
385.8968586274842
 30
0.0
  0
VERTEX
  5
2C1
330
2B9
100
AcDbEntity
  8
Layer 1
370
     0
100
AcDbVertex
100
AcDb2dVertex
 10
371.3950736918734
 20
382.1034639886755
 30
0.0
  0
VERTEX
  5
2C2
330
2B9
100
AcDbEntity
  8
Layer 1
370
     0
100
AcDbVertex
100
AcDb2dVertex
 10
372.5043944381239
 20
385.8968586274842
 30
0.0
  0
VERTEX
  5
2C3
330
2B9
100
AcDbEntity
  8
Layer 1
370
     0
100
AcDbVertex
100
AcDb2dVertex
 10
373.3763481054406
 20
385.8968586274842
 30
0.0
  0
VERTEX
  5
2C4
330
2B9
100
AcDbEntity
  8
Layer 1
370
     0
100
AcDbVertex
100
AcDb2dVertex
 10
374.4856688516911
 20
382.1034639886755
 30
0.0
  0
VERTEX
  5
2C5
330
2B9
100
AcDbEntity
  8
Layer 1
370
     0
100
AcDbVertex
100
AcDb2dVertex
 10
375.4168781613541
 20
385.8968586274842
 30
0.0
  0
VERTEX
  5
2C6
330
2B9
100
AcDbEntity
  8
Layer 1
370
     0
100
AcDbVertex
100
AcDb2dVertex
 10
376.6447101922972
 20
385.8968586274842
 30
0.0
  0
VERTEX
  5
2C7
330
2B9
100
AcDbEntity
  8
Layer 1
370
     0
100
AcDbVertex
100
AcDb2dVertex
 10
375.0358506006855
 20
379.8679415282969
 30
0.0
  0
SEQEND
  5
2C8
330
2B9
100
AcDbEntity
  8
Layer 1
370
     0
  0
HATCH
  5
2C9
330
2AE
100
AcDbEntity
  8
Layer 1
 62
     7
100
AcDbHatch
 10
0.0
 20
0.0
 30
0.0
210
0.0
220
0.0
230
1.0
  2
SOLID
 70
     1
 71
     0
 91
        1
 92
        1
 93
       13
 72
     1
 10
375.0358506006855
 20
379.8679415282969
 11
374.0453856486762
 21
379.8679415282969
 72
     1
 10
374.0453856486762
 20
379.8679415282969
 11
372.9360649024257
 21
383.5173311758221
 72
     1
 10
372.9360649024257
 20
383.5173311758221
 11
371.8353568948884
 21
379.8679415282969
 72
     1
 10
371.8353568948884
 20
379.8679415282969
 11
370.8531601720437
 21
379.8679415282969
 72
     1
 10
370.8531601720437
 20
379.8679415282969
 11
369.2356878417189
 21
385.8968586274842
 72
     1
 10
369.2356878417189
 20
385.8968586274842
 11
370.4635198726619
 21
385.8968586274842
 72
     1
 10
370.4635198726619
 20
385.8968586274842
 11
371.3950736918734
 21
382.1034639886755
 72
     1
 10
371.3950736918734
 20
382.1034639886755
 11
372.5043944381239
 21
385.8968586274842
 72
     1
 10
372.5043944381239
 20
385.8968586274842
 11
373.3763481054406
 21
385.8968586274842
 72
     1
 10
373.3763481054406
 20
385.8968586274842
 11
374.4856688516911
 21
382.1034639886755
 72
     1
 10
374.4856688516911
 20
382.1034639886755
 11
375.4168781613541
 21
385.8968586274842
 72
     1
 10
375.4168781613541
 20
385.8968586274842
 11
376.6447101922972
 21
385.8968586274842
 72
     1
 10
376.6447101922972
 20
385.8968586274842
 11
375.0358506006855
 21
379.8679415282969
 97
        0
 75
     2
 76
     1
 98
        0
  0
POLYLINE
  5
2CA
330
2AE
100
AcDbEntity
  8
Layer 1
370
     0
100
AcDb2dPolyline
 66
     1
 10
0.0
 20
0.0
 30
0.0
  0
VERTEX
  5
2CB
330
2CA
100
AcDbEntity
  8
Layer 1
370
     0
100
AcDbVertex
100
AcDb2dVertex
 10
382.8593179381393
 20
379.8679415282969
 30
0.0
  0
VERTEX
  5
2CC
330
2CA
100
AcDbEntity
  8
Layer 1
370
     0
100
AcDbVertex
100
AcDb2dVertex
 10
381.682473320378
 20
379.8679415282969
 30
0.0
  0
VERTEX
  5
2CD
330
2CA
100
AcDbEntity
  8
Layer 1
370
     0
100
AcDbVertex
100
AcDb2dVertex
 10
381.682473320378
 20
383.3733261845387
 30
0.0
  0
VERTEX
  5
2CE
330
2CA
100
AcDbEntity
  8
Layer 1
370
     0
100
AcDbVertex
100
AcDb2dVertex
 10
380.530777899659
 20
381.2311658118103
 30
0.0
  0
VERTEX
  5
2CF
330
2CA
100
AcDbEntity
  8
Layer 1
370
     0
100
AcDbVertex
100
AcDb2dVertex
 10
379.7349608425663
 20
381.2311658118103
 30
0.0
  0
VERTEX
  5
2D0
330
2CA
100
AcDbEntity
  8
Layer 1
370
     0
100
AcDbVertex
100
AcDb2dVertex
 10
378.5746526831341
 20
383.3733261845387
 30
0.0
  0
VERTEX
  5
2D1
330
2CA
100
AcDbEntity
  8
Layer 1
370
     0
100
AcDbVertex
100
AcDb2dVertex
 10
378.5746526831341
 20
379.8679415282969
 30
0.0
  0
VERTEX
  5
2D2
330
2CA
100
AcDbEntity
  8
Layer 1
370
     0
100
AcDbVertex
100
AcDb2dVertex
 10
377.3978080653728
 20
379.8679415282969
 30
0.0
  0
VERTEX
  5
2D3
330
2CA
100
AcDbEntity
  8
Layer 1
370
     0
100
AcDbVertex
100
AcDb2dVertex
 10
377.3978080653728
 20
385.8968586274842
 30
0.0
  0
VERTEX
  5
2D4
330
2CA
100
AcDbEntity
  8
Layer 1
370
     0
100
AcDbVertex
100
AcDb2dVertex
 10
378.5577717152564
 20
385.8968586274842
 30
0.0
  0
VERTEX
  5
2D5
330
2CA
100
AcDbEntity
  8
Layer 1
370
     0
100
AcDbVertex
100
AcDb2dVertex
 10
380.1328693711126
 20
382.7721570223625
 30
0.0
  0
VERTEX
  5
2D6
330
2CA
100
AcDbEntity
  8
Layer 1
370
     0
100
AcDbVertex
100
AcDb2dVertex
 10
381.6993542882557
 20
385.8968586274842
 30
0.0
  0
VERTEX
  5
2D7
330
2CA
100
AcDbEntity
  8
Layer 1
370
     0
100
AcDbVertex
100
AcDb2dVertex
 10
382.8593179381393
 20
385.8968586274842
 30
0.0
  0
VERTEX
  5
2D8
330
2CA
100
AcDbEntity
  8
Layer 1
370
     0
100
AcDbVertex
100
AcDb2dVertex
 10
382.8593179381393
 20
379.8679415282969
 30
0.0
  0
SEQEND
  5
2D9
330
2CA
100
AcDbEntity
  8
Layer 1
370
     0
  0
HATCH
  5
2DA
330
2AE
100
AcDbEntity
  8
Layer 1
 62
     7
100
AcDbHatch
 10
0.0
 20
0.0
 30
0.0
210
0.0
220
0.0
230
1.0
  2
SOLID
 70
     1
 71
     0
 91
        1
 92
        1
 93
       13
 72
     1
 10
382.8593179381393
 20
379.8679415282969
 11
381.682473320378
 21
379.8679415282969
 72
     1
 10
381.682473320378
 20
379.8679415282969
 11
381.682473320378
 21
383.3733261845387
 72
     1
 10
381.682473320378
 20
383.3733261845387
 11
380.530777899659
 21
381.2311658118103
 72
     1
 10
380.530777899659
 20
381.2311658118103
 11
379.7349608425663
 21
381.2311658118103
 72
     1
 10
379.7349608425663
 20
381.2311658118103
 11
378.5746526831341
 21
383.3733261845387
 72
     1
 10
378.5746526831341
 20
383.3733261845387
 11
378.5746526831341
 21
379.8679415282969
 72
     1
 10
378.5746526831341
 20
379.8679415282969
 11
377.3978080653728
 21
379.8679415282969
 72
     1
 10
377.3978080653728
 20
379.8679415282969
 11
377.3978080653728
 21
385.8968586274842
 72
     1
 10
377.3978080653728
 20
385.8968586274842
 11
378.5577717152564
 21
385.8968586274842
 72
     1
 10
378.5577717152564
 20
385.8968586274842
 11
380.1328693711126
 21
382.7721570223625
 72
     1
 10
380.1328693711126
 20
382.7721570223625
 11
381.6993542882557
 21
385.8968586274842
 72
     1
 10
381.6993542882557
 20
385.8968586274842
 11
382.8593179381393
 21
385.8968586274842
 72
     1
 10
382.8593179381393
 20
385.8968586274842
 11
382.8593179381393
 21
379.8679415282969
 97
        0
 75
     2
 76
     1
 98
        0
  0
POLYLINE
  5
2DB
330
2AE
100
AcDbEntity
  8
Layer 1
370
     0
100
AcDb2dPolyline
 66
     1
 10
0.0
 20
0.0
 30
0.0
  0
VERTEX
  5
2DC
330
2DB
100
AcDbEntity
  8
Layer 1
370
     0
100
AcDbVertex
100
AcDb2dVertex
 10
388.921307953985
 20
379.8679415282969
 30
0.0
  0
VERTEX
  5
2DD
330
2DB
100
AcDbEntity
  8
Layer 1
370
     0
100
AcDbVertex
100
AcDb2dVertex
 10
387.6852076938773
 20
379.8679415282969
 30
0.0
  0
VERTEX
  5
2DE
330
2DB
100
AcDbEntity
  8
Layer 1
370
     0
100
AcDbVertex
100
AcDb2dVertex
 10
387.329329330251
 20
380.9348876000788
 30
0.0
  0
VERTEX
  5
2DF
330
2DB
100
AcDbEntity
  8
Layer 1
370
     0
100
AcDbVertex
100
AcDb2dVertex
 10
385.1957816962358
 20
380.9348876000788
 30
0.0
  0
VERTEX
  5
2E0
330
2DB
100
AcDbEntity
  8
Layer 1
370
     0
100
AcDbVertex
100
AcDb2dVertex
 10
384.8316351034449
 20
379.8679415282969
 30
0.0
  0
VERTEX
  5
2E1
330
2DB
100
AcDbEntity
  8
Layer 1
370
     0
100
AcDbVertex
100
AcDb2dVertex
 10
383.5951903337887
 20
379.8679415282969
 30
0.0
  0
VERTEX
  5
2E2
330
2DB
100
AcDbEntity
  8
Layer 1
370
     0
100
AcDbVertex
100
AcDb2dVertex
 10
385.7969508584119
 20
385.8968586274842
 30
0.0
  0
VERTEX
  5
2E3
330
2DB
100
AcDbEntity
  8
Layer 1
370
     0
100
AcDbVertex
100
AcDb2dVertex
 10
386.7198919389103
 20
385.8968586274842
 30
0.0
  0
VERTEX
  5
2E4
330
2DB
100
AcDbEntity
  8
Layer 1
370
     0
100
AcDbVertex
100
AcDb2dVertex
 10
388.921307953985
 20
379.8679415282969
 30
0.0
  0
SEQEND
  5
2E5
330
2DB
100
AcDbEntity
  8
Layer 1
370
     0
  0
POLYLINE
  5
2E6
330
2AE
100
AcDbEntity
  8
Layer 1
370
     0
100
AcDb2dPolyline
 66
     1
 10
0.0
 20
0.0
 30
0.0
  0
VERTEX
  5
2E7
330
2E6
100
AcDbEntity
  8
Layer 1
370
     0
100
AcDbVertex
100
AcDb2dVertex
 10
385.5175536145582
 20
381.9253525520881
 30
0.0
  0
VERTEX
  5
2E8
330
2E6
100
AcDbEntity
  8
Layer 1
370
     0
100
AcDbVertex
100
AcDb2dVertex
 10
386.9992891827641
 20
381.9253525520881
 30
0.0
  0
VERTEX
  5
2E9
330
2E6
100
AcDbEntity
  8
Layer 1
370
     0
100
AcDbVertex
100
AcDb2dVertex
 10
386.2623832584691
 20
384.1102321088335
 30
0.0
  0
VERTEX
  5
2EA
330
2E6
100
AcDbEntity
  8
Layer 1
370
     0
100
AcDbVertex
100
AcDb2dVertex
 10
385.5175536145582
 20
381.9253525520881
 30
0.0
  0
SEQEND
  5
2EB
330
2E6
100
AcDbEntity
  8
Layer 1
370
     0
  0
HATCH
  5
2EC
330
2AE
100
AcDbEntity
  8
Layer 1
 62
     7
100
AcDbHatch
 10
0.0
 20
0.0
 30
0.0
210
0.0
220
0.0
230
1.0
  2
SOLID
 70
     1
 71
     0
 91
        2
 92
        1
 93
        8
 72
     1
 10
388.921307953985
 20
379.8679415282969
 11
387.6852076938773
 21
379.8679415282969
 72
     1
 10
387.6852076938773
 20
379.8679415282969
 11
387.329329330251
 21
380.9348876000788
 72
     1
 10
387.329329330251
 20
380.9348876000788
 11
385.1957816962358
 21
380.9348876000788
 72
     1
 10
385.1957816962358
 20
380.9348876000788
 11
384.8316351034449
 21
379.8679415282969
 72
     1
 10
384.8316351034449
 20
379.8679415282969
 11
383.5951903337887
 21
379.8679415282969
 72
     1
 10
383.5951903337887
 20
379.8679415282969
 11
385.7969508584119
 21
385.8968586274842
 72
     1
 10
385.7969508584119
 20
385.8968586274842
 11
386.7198919389103
 21
385.8968586274842
 72
     1
 10
386.7198919389103
 20
385.8968586274842
 11
388.921307953985
 21
379.8679415282969
 97
        0
 92
        1
 93
        3
 72
     1
 10
385.5175536145582
 20
381.9253525520881
 11
386.9992891827641
 21
381.9253525520881
 72
     1
 10
386.9992891827641
 20
381.9253525520881
 11
386.2623832584691
 21
384.1102321088335
 72
     1
 10
386.2623832584691
 20
384.1102321088335
 11
385.5175536145582
 21
381.9253525520881
 97
        0
 75
     2
 76
     1
 98
        0
  0
SPLINE
  5
2ED
330
2AE
100
AcDbEntity
  8
Layer 1
370
     0
100
AcDbSpline
210
0.0
220
0.0
230
1.0
 70
    11
 71
     3
 72
    47
 73
    43
 74
     0
 42
0.0000000001
 43
0.0000000001
 12
1.0
 22
0.0
 32
0.0
 13
1.0
 23
0.0
 33
0.0
 40
0.0
 40
0.0
 40
0.0
 40
0.0
 40
1.0
 40
1.0
 40
1.0
 40
2.0
 40
2.0
 40
2.0
 40
3.0
 40
3.0
 40
3.0
 40
4.0
 40
4.0
 40
4.0
 40
5.0
 40
5.0
 40
5.0
 40
6.0
 40
6.0
 40
6.0
 40
7.0
 40
7.0
 40
7.0
 40
8.0
 40
8.0
 40
8.0
 40
9.0
 40
9.0
 40
9.0
 40
10.0
 40
10.0
 40
10.0
 40
11.0
 40
11.0
 40
11.0
 40
12.0
 40
12.0
 40
12.0
 40
13.0
 40
13.0
 40
13.0
 40
14.0
 40
14.0
 40
14.0
 40
14.0
 10
393.8064533520692
 20
384.0423637277742
 30
0.0
 10
393.8064533520692
 20
384.0423637277742
 30
0.0
 10
392.6127277664302
 20
384.0423637277742
 30
0.0
 10
392.6127277664302
 20
384.0423637277742
 30
0.0
 10
392.493871972189
 20
384.5336343439708
 30
0.0
 10
392.1807127925798
 20
384.8974364272132
 30
0.0
 10
391.5964245982815
 20
384.8974364272132
 30
0.0
 10
391.2746526799592
 20
384.8974364272132
 30
0.0
 10
391.0121364039831
 20
384.7789251425206
 30
0.0
 10
390.8429822156573
 20
384.5842772476039
 30
0.0
 10
390.6228406141499
 20
384.330373710341
 30
0.0
 10
390.5463594943773
 20
384.033750989061
 30
0.0
 10
390.5463594943773
 20
382.8824000778905
 30
0.0
 10
390.5463594943773
 20
381.7307046571715
 30
0.0
 10
390.6228406141499
 20
381.43442644544
 30
0.0
 10
390.8429822156573
 20
381.1805229081771
 30
0.0
 10
391.0121364039831
 20
380.985530503712
 30
0.0
 10
391.2746526799592
 20
380.8670192190194
 30
0.0
 10
391.5964245982815
 20
380.8670192190194
 30
0.0
 10
392.1807127925798
 20
380.8670192190194
 30
0.0
 10
392.493871972189
 20
381.2311658118103
 30
0.0
 10
392.6127277664302
 20
381.7224364280069
 30
0.0
 10
392.6127277664302
 20
381.7224364280069
 30
0.0
 10
393.8064533520692
 20
381.7224364280069
 30
0.0
 10
393.8064533520692
 20
381.7224364280069
 30
0.0
 10
393.5949244892749
 20
380.4604979517599
 30
0.0
 10
392.7226263124097
 20
379.8172986246637
 30
0.0
 10
391.5964245982815
 20
379.8172986246637
 30
0.0
 10
390.9022378580036
 20
379.8172986246637
 30
0.0
 10
390.3940862739292
 20
380.0457084553358
 30
0.0
 10
389.9792967775052
 20
380.4522297225953
 30
0.0
 10
389.3781276153291
 20
381.0533988847714
 30
0.0
 10
389.369514876616
 20
381.7307046571715
 30
0.0
 10
389.369514876616
 20
382.8824000778905
 30
0.0
 10
389.369514876616
 20
384.033750989061
 30
0.0
 10
389.3781276153291
 20
384.7114012710097
 30
0.0
 10
389.9792967775052
 20
385.3125704331858
 30
0.0
 10
390.3940862739292
 20
385.7187471908967
 30
0.0
 10
390.9022378580036
 20
385.9475015311173
 30
0.0
 10
391.5964245982815
 20
385.9475015311173
 30
0.0
 10
392.7226263124097
 20
385.9475015311173
 30
0.0
 10
393.5949244892749
 20
385.3039576944726
 30
0.0
 10
393.8064533520692
 20
384.0423637277742
 30
0.0
  0
HATCH
  5
2EE
330
2AE
100
AcDbEntity
  8
Layer 1
 62
     7
100
AcDbHatch
 10
0.0
 20
0.0
 30
0.0
210
0.0
220
0.0
230
1.0
  2
SOLID
 70
     1
 71
     0
 91
        1
 92
        1
 93
        1
 72
     4
 94
        3
 73
     0
 74
     1
 95
       47
 96
       43
 40
0.0
 40
0.0
 40
0.0
 40
0.0
 40
1.0
 40
1.0
 40
1.0
 40
2.0
 40
2.0
 40
2.0
 40
3.0
 40
3.0
 40
3.0
 40
4.0
 40
4.0
 40
4.0
 40
5.0
 40
5.0
 40
5.0
 40
6.0
 40
6.0
 40
6.0
 40
7.0
 40
7.0
 40
7.0
 40
8.0
 40
8.0
 40
8.0
 40
9.0
 40
9.0
 40
9.0
 40
10.0
 40
10.0
 40
10.0
 40
11.0
 40
11.0
 40
11.0
 40
12.0
 40
12.0
 40
12.0
 40
13.0
 40
13.0
 40
13.0
 40
14.0
 40
14.0
 40
14.0
 40
14.0
 10
393.8064533520692
 20
384.0423637277742
 10
393.8064533520692
 20
384.0423637277742
 10
392.6127277664302
 20
384.0423637277742
 10
392.6127277664302
 20
384.0423637277742
 10
392.493871972189
 20
384.5336343439708
 10
392.1807127925798
 20
384.8974364272132
 10
391.5964245982815
 20
384.8974364272132
 10
391.2746526799592
 20
384.8974364272132
 10
391.0121364039831
 20
384.7789251425206
 10
390.8429822156573
 20
384.5842772476039
 10
390.6228406141499
 20
384.330373710341
 10
390.5463594943773
 20
384.033750989061
 10
390.5463594943773
 20
382.8824000778905
 10
390.5463594943773
 20
381.7307046571715
 10
390.6228406141499
 20
381.43442644544
 10
390.8429822156573
 20
381.1805229081771
 10
391.0121364039831
 20
380.985530503712
 10
391.2746526799592
 20
380.8670192190194
 10
391.5964245982815
 20
380.8670192190194
 10
392.1807127925798
 20
380.8670192190194
 10
392.493871972189
 20
381.2311658118103
 10
392.6127277664302
 20
381.7224364280069
 10
392.6127277664302
 20
381.7224364280069
 10
393.8064533520692
 20
381.7224364280069
 10
393.8064533520692
 20
381.7224364280069
 10
393.5949244892749
 20
380.4604979517599
 10
392.7226263124097
 20
379.8172986246637
 10
391.5964245982815
 20
379.8172986246637
 10
390.9022378580036
 20
379.8172986246637
 10
390.3940862739292
 20
380.0457084553358
 10
389.9792967775052
 20
380.4522297225953
 10
389.3781276153291
 20
381.0533988847714
 10
389.369514876616
 20
381.7307046571715
 10
389.369514876616
 20
382.8824000778905
 10
389.369514876616
 20
384.033750989061
 10
389.3781276153291
 20
384.7114012710097
 10
389.9792967775052
 20
385.3125704331858
 10
390.3940862739292
 20
385.7187471908967
 10
390.9022378580036
 20
385.9475015311173
 10
391.5964245982815
 20
385.9475015311173
 10
392.7226263124097
 20
385.9475015311173
 10
393.5949244892749
 20
385.3039576944726
 10
393.8064533520692
 20
384.0423637277742
 97
        0
 75
     2
 76
     1
 98
        0
  0
SPLINE
  5
2EF
330
2AE
100
AcDbEntity
  8
Layer 1
370
     0
100
AcDbSpline
210
0.0
220
0.0
230
1.0
 70
    11
 71
     3
 72
    17
 73
    13
 74
     0
 42
0.0000000001
 43
0.0000000001
 12
1.0
 22
0.0
 32
0.0
 13
1.0
 23
0.0
 33
0.0
 40
0.0
 40
0.0
 40
0.0
 40
0.0
 40
1.0
 40
1.0
 40
1.0
 40
2.0
 40
2.0
 40
2.0
 40
3.0
 40
3.0
 40
3.0
 40
4.0
 40
4.0
 40
4.0
 40
4.0
 10
394.4103785906335
 20
384.4447508804514
 30
0.0
 10
394.4103785906335
 20
385.4317707369754
 30
0.0
 10
395.2103297623086
 20
386.2317219086504
 30
0.0
 10
396.1973496188326
 20
386.2317219086504
 30
0.0
 10
397.1847139849052
 20
386.2317219086504
 30
0.0
 10
397.9843206470317
 20
385.4317707369754
 30
0.0
 10
397.9843206470317
 20
384.4447508804514
 30
0.0
 10
397.9843206470317
 20
383.4573865143788
 30
0.0
 10
397.1847139849052
 20
382.6577798522522
 30
0.0
 10
396.1973496188326
 20
382.6577798522522
 30
0.0
 10
395.2103297623086
 20
382.6577798522522
 30
0.0
 10
394.4103785906335
 20
383.4573865143788
 30
0.0
 10
394.4103785906335
 20
384.4447508804514
 30
0.0
  0
SPLINE
  5
2F0
330
2AE
100
AcDbEntity
  8
Layer 1
370
     0
100
AcDbSpline
210
0.0
220
0.0
230
1.0
 70
    11
 71
     3
 72
    17
 73
    13
 74
     0
 42
0.0000000001
 43
0.0000000001
 12
1.0
 22
0.0
 32
0.0
 13
1.0
 23
0.0
 33
0.0
 40
0.0
 40
0.0
 40
0.0
 40
0.0
 40
1.0
 40
1.0
 40
1.0
 40
2.0
 40
2.0
 40
2.0
 40
3.0
 40
3.0
 40
3.0
 40
4.0
 40
4.0
 40
4.0
 40
4.0
 10
397.5598848832489
 20
384.4447508804514
 30
0.0
 10
397.5598848832489
 20
385.2395344088985
 30
0.0
 10
396.967328459786
 20
385.8317463228129
 30
0.0
 10
396.1973496188326
 20
385.8317463228129
 30
0.0
 10
395.4273707778793
 20
385.8317463228129
 30
0.0
 10
394.8351588639649
 20
385.2395344088985
 30
0.0
 10
394.8351588639649
 20
384.4447508804514
 30
0.0
 10
394.8351588639649
 20
383.6499673520042
 30
0.0
 10
395.4273707778793
 20
383.0577554380898
 30
0.0
 10
396.1973496188326
 20
383.0577554380898
 30
0.0
 10
396.967328459786
 20
383.0577554380898
 30
0.0
 10
397.5598848832489
 20
383.6499673520042
 30
0.0
 10
397.5598848832489
 20
384.4447508804514
 30
0.0
  0
SPLINE
  5
2F1
330
2AE
100
AcDbEntity
  8
Layer 1
370
     0
100
AcDbSpline
210
0.0
220
0.0
230
1.0
 70
    11
 71
     3
 72
    35
 73
    31
 74
     0
 42
0.0000000001
 43
0.0000000001
 12
1.0
 22
0.0
 32
0.0
 13
1.0
 23
0.0
 33
0.0
 40
0.0
 40
0.0
 40
0.0
 40
0.0
 40
1.0
 40
1.0
 40
1.0
 40
2.0
 40
2.0
 40
2.0
 40
3.0
 40
3.0
 40
3.0
 40
4.0
 40
4.0
 40
4.0
 40
5.0
 40
5.0
 40
5.0
 40
6.0
 40
6.0
 40
6.0
 40
7.0
 40
7.0
 40
7.0
 40
8.0
 40
8.0
 40
8.0
 40
9.0
 40
9.0
 40
9.0
 40
10.0
 40
10.0
 40
10.0
 40
10.0
 10
395.5458820625719
 20
385.3973197821229
 30
0.0
 10
395.5458820625719
 20
385.3973197821229
 30
0.0
 10
396.3206840372046
 20
385.3973197821229
 30
0.0
 10
396.3206840372046
 20
385.3973197821229
 30
0.0
 10
396.7058457124555
 20
385.3973197821229
 30
0.0
 10
396.9525145491994
 20
385.115855480978
 30
0.0
 10
396.9525145491994
 20
384.7999402249806
 30
0.0
 10
396.9525145491994
 20
384.5384574776501
 30
0.0
 10
396.7847383990677
 20
384.3706813275185
 30
0.0
 10
396.6021483383495
 20
384.2966117745856
 30
0.0
 10
396.6021483383495
 20
384.2966117745856
 30
0.0
 10
397.002123924187
 20
383.4970051124591
 30
0.0
 10
397.002123924187
 20
383.4970051124591
 30
0.0
 10
397.002123924187
 20
383.4970051124591
 30
0.0
 10
396.5180880085094
 20
383.4970051124591
 30
0.0
 10
396.5180880085094
 20
383.4970051124591
 30
0.0
 10
396.5180880085094
 20
383.4970051124591
 30
0.0
 10
396.1728894408873
 20
384.2325329985599
 30
0.0
 10
396.1728894408873
 20
384.2325329985599
 30
0.0
 10
396.1728894408873
 20
384.2325329985599
 30
0.0
 10
395.9703178263547
 20
384.2325329985599
 30
0.0
 10
395.9703178263547
 20
384.2325329985599
 30
0.0
 10
395.9703178263547
 20
384.2325329985599
 30
0.0
 10
395.9703178263547
 20
383.4970051124591
 30
0.0
 10
395.9703178263547
 20
383.4970051124591
 30
0.0
 10
395.9703178263547
 20
383.4970051124591
 30
0.0
 10
395.5458820625719
 20
383.4970051124591
 30
0.0
 10
395.5458820625719
 20
383.4970051124591
 30
0.0
 10
395.5458820625719
 20
383.4970051124591
 30
0.0
 10
395.5458820625719
 20
385.3973197821229
 30
0.0
 10
395.5458820625719
 20
385.3973197821229
 30
0.0
  0
SPLINE
  5
2F2
330
2AE
100
AcDbEntity
  8
Layer 1
370
     0
100
AcDbSpline
210
0.0
220
0.0
230
1.0
 70
    11
 71
     3
 72
    20
 73
    16
 74
     0
 42
0.0000000001
 43
0.0000000001
 12
1.0
 22
0.0
 32
0.0
 13
1.0
 23
0.0
 33
0.0
 40
0.0
 40
0.0
 40
0.0
 40
0.0
 40
1.0
 40
1.0
 40
1.0
 40
2.0
 40
2.0
 40
2.0
 40
3.0
 40
3.0
 40
3.0
 40
4.0
 40
4.0
 40
4.0
 40
5.0
 40
5.0
 40
5.0
 40
5.0
 10
396.2665960380862
 20
384.5532713882367
 30
0.0
 10
396.4243814113106
 20
384.5532713882367
 30
0.0
 10
396.5280787854166
 20
384.6669595392499
 30
0.0
 10
396.5280787854166
 20
384.7999402249806
 30
0.0
 10
396.5280787854166
 20
384.9332654202598
 30
0.0
 10
396.4243814113106
 20
385.046953571273
 30
0.0
 10
396.2665960380862
 20
385.046953571273
 30
0.0
 10
396.2665960380862
 20
385.046953571273
 30
0.0
 10
395.9703178263547
 20
385.046953571273
 30
0.0
 10
395.9703178263547
 20
385.046953571273
 30
0.0
 10
395.9703178263547
 20
385.046953571273
 30
0.0
 10
395.9703178263547
 20
384.5532713882367
 30
0.0
 10
395.9703178263547
 20
384.5532713882367
 30
0.0
 10
395.9703178263547
 20
384.5532713882367
 30
0.0
 10
396.2665960380862
 20
384.5532713882367
 30
0.0
 10
396.2665960380862
 20
384.5532713882367
 30
0.0
  0
HATCH
  5
2F3
330
2AE
100
AcDbEntity
  8
Layer 1
 62
     7
100
AcDbHatch
 10
0.0
 20
0.0
 30
0.0
210
0.0
220
0.0
230
1.0
  2
SOLID
 70
     1
 71
     0
 91
        4
 92
        1
 93
        1
 72
     4
 94
        3
 73
     0
 74
     1
 95
       17
 96
       13
 40
0.0
 40
0.0
 40
0.0
 40
0.0
 40
1.0
 40
1.0
 40
1.0
 40
2.0
 40
2.0
 40
2.0
 40
3.0
 40
3.0
 40
3.0
 40
4.0
 40
4.0
 40
4.0
 40
4.0
 10
394.4103785906335
 20
384.4447508804514
 10
394.4103785906335
 20
385.4317707369754
 10
395.2103297623086
 20
386.2317219086504
 10
396.1973496188326
 20
386.2317219086504
 10
397.1847139849052
 20
386.2317219086504
 10
397.9843206470317
 20
385.4317707369754
 10
397.9843206470317
 20
384.4447508804514
 10
397.9843206470317
 20
383.4573865143788
 10
397.1847139849052
 20
382.6577798522522
 10
396.1973496188326
 20
382.6577798522522
 10
395.2103297623086
 20
382.6577798522522
 10
394.4103785906335
 20
383.4573865143788
 10
394.4103785906335
 20
384.4447508804514
 97
        0
 92
        1
 93
        1
 72
     4
 94
        3
 73
     0
 74
     1
 95
       17
 96
       13
 40
0.0
 40
0.0
 40
0.0
 40
0.0
 40
1.0
 40
1.0
 40
1.0
 40
2.0
 40
2.0
 40
2.0
 40
3.0
 40
3.0
 40
3.0
 40
4.0
 40
4.0
 40
4.0
 40
4.0
 10
397.5598848832489
 20
384.4447508804514
 10
397.5598848832489
 20
385.2395344088985
 10
396.967328459786
 20
385.8317463228129
 10
396.1973496188326
 20
385.8317463228129
 10
395.4273707778793
 20
385.8317463228129
 10
394.8351588639649
 20
385.2395344088985
 10
394.8351588639649
 20
384.4447508804514
 10
394.8351588639649
 20
383.6499673520042
 10
395.4273707778793
 20
383.0577554380898
 10
396.1973496188326
 20
383.0577554380898
 10
396.967328459786
 20
383.0577554380898
 10
397.5598848832489
 20
383.6499673520042
 10
397.5598848832489
 20
384.4447508804514
 97
        0
 92
        1
 93
        1
 72
     4
 94
        3
 73
     0
 74
     1
 95
       35
 96
       31
 40
0.0
 40
0.0
 40
0.0
 40
0.0
 40
1.0
 40
1.0
 40
1.0
 40
2.0
 40
2.0
 40
2.0
 40
3.0
 40
3.0
 40
3.0
 40
4.0
 40
4.0
 40
4.0
 40
5.0
 40
5.0
 40
5.0
 40
6.0
 40
6.0
 40
6.0
 40
7.0
 40
7.0
 40
7.0
 40
8.0
 40
8.0
 40
8.0
 40
9.0
 40
9.0
 40
9.0
 40
10.0
 40
10.0
 40
10.0
 40
10.0
 10
395.5458820625719
 20
385.3973197821229
 10
395.5458820625719
 20
385.3973197821229
 10
396.3206840372046
 20
385.3973197821229
 10
396.3206840372046
 20
385.3973197821229
 10
396.7058457124555
 20
385.3973197821229
 10
396.9525145491994
 20
385.115855480978
 10
396.9525145491994
 20
384.7999402249806
 10
396.9525145491994
 20
384.5384574776501
 10
396.7847383990677
 20
384.3706813275185
 10
396.6021483383495
 20
384.2966117745856
 10
396.6021483383495
 20
384.2966117745856
 10
397.002123924187
 20
383.4970051124591
 10
397.002123924187
 20
383.4970051124591
 10
397.002123924187
 20
383.4970051124591
 10
396.5180880085094
 20
383.4970051124591
 10
396.5180880085094
 20
383.4970051124591
 10
396.5180880085094
 20
383.4970051124591
 10
396.1728894408873
 20
384.2325329985599
 10
396.1728894408873
 20
384.2325329985599
 10
396.1728894408873
 20
384.2325329985599
 10
395.9703178263547
 20
384.2325329985599
 10
395.9703178263547
 20
384.2325329985599
 10
395.9703178263547
 20
384.2325329985599
 10
395.9703178263547
 20
383.4970051124591
 10
395.9703178263547
 20
383.4970051124591
 10
395.9703178263547
 20
383.4970051124591
 10
395.5458820625719
 20
383.4970051124591
 10
395.5458820625719
 20
383.4970051124591
 10
395.5458820625719
 20
383.4970051124591
 10
395.5458820625719
 20
385.3973197821229
 10
395.5458820625719
 20
385.3973197821229
 97
        0
 92
        1
 93
        1
 72
     4
 94
        3
 73
     0
 74
     1
 95
       20
 96
       16
 40
0.0
 40
0.0
 40
0.0
 40
0.0
 40
1.0
 40
1.0
 40
1.0
 40
2.0
 40
2.0
 40
2.0
 40
3.0
 40
3.0
 40
3.0
 40
4.0
 40
4.0
 40
4.0
 40
5.0
 40
5.0
 40
5.0
 40
5.0
 10
396.2665960380862
 20
384.5532713882367
 10
396.4243814113106
 20
384.5532713882367
 10
396.5280787854166
 20
384.6669595392499
 10
396.5280787854166
 20
384.7999402249806
 10
396.5280787854166
 20
384.9332654202598
 10
396.4243814113106
 20
385.046953571273
 10
396.2665960380862
 20
385.046953571273
 10
396.2665960380862
 20
385.046953571273
 10
395.9703178263547
 20
385.046953571273
 10
395.9703178263547
 20
385.046953571273
 10
395.9703178263547
 20
385.046953571273
 10
395.9703178263547
 20
384.5532713882367
 10
395.9703178263547
 20
384.5532713882367
 10
395.9703178263547
 20
384.5532713882367
 10
396.2665960380862
 20
384.5532713882367
 10
396.2665960380862
 20
384.5532713882367
 97
        0
 75
     2
 76
     1
 98
        0
  0
SPLINE
  5
2F4
330
2AE
100
AcDbEntity
  8
Layer 1
370
     0
100
AcDbSpline
210
0.0
220
0.0
230
1.0
 70
    11
 71
     3
 72
    26
 73
    22
 74
     0
 42
0.0000000001
 43
0.0000000001
 12
1.0
 22
0.0
 32
0.0
 13
1.0
 23
0.0
 33
0.0
 40
0.0
 40
0.0
 40
0.0
 40
0.0
 40
1.0
 40
1.0
 40
1.0
 40
2.0
 40
2.0
 40
2.0
 40
3.0
 40
3.0
 40
3.0
 40
4.0
 40
4.0
 40
4.0
 40
5.0
 40
5.0
 40
5.0
 40
6.0
 40
6.0
 40
6.0
 40
7.0
 40
7.0
 40
7.0
 40
7.0
 10
403.5247232064105
 20
385.8968586274842
 30
0.0
 10
404.5747883103147
 20
385.8968586274842
 30
0.0
 10
405.3030814958965
 20
385.295689465308
 30
0.0
 10
405.3030814958965
 20
384.2879990358725
 30
0.0
 10
405.3030814958965
 20
383.6527234283924
 30
0.0
 10
404.9220539352278
 20
383.1531845830312
 30
0.0
 10
404.4139023511535
 20
382.9671494268277
 30
0.0
 10
404.9895778067387
 20
382.7552760544848
 30
0.0
 10
405.3960990739982
 20
382.2557372091236
 30
0.0
 10
405.3960990739982
 20
381.5360567622549
 30
0.0
 10
405.3960990739982
 20
380.4436169838822
 30
0.0
 10
404.668150397965
 20
379.8679415282969
 30
0.0
 10
403.6012043261831
 20
379.8679415282969
 30
0.0
 10
403.6012043261831
 20
379.8679415282969
 30
0.0
 10
401.255783319825
 20
379.8679415282969
 30
0.0
 10
401.255783319825
 20
379.8679415282969
 30
0.0
 10
401.255783319825
 20
379.8679415282969
 30
0.0
 10
401.255783319825
 20
385.8968586274842
 30
0.0
 10
401.255783319825
 20
385.8968586274842
 30
0.0
 10
401.255783319825
 20
385.8968586274842
 30
0.0
 10
403.5247232064105
 20
385.8968586274842
 30
0.0
 10
403.5247232064105
 20
385.8968586274842
 30
0.0
  0
SPLINE
  5
2F5
330
2AE
100
AcDbEntity
  8
Layer 1
370
     0
100
AcDbSpline
210
0.0
220
0.0
230
1.0
 70
    11
 71
     3
 72
    20
 73
    16
 74
     0
 42
0.0000000001
 43
0.0000000001
 12
1.0
 22
0.0
 32
0.0
 13
1.0
 23
0.0
 33
0.0
 40
0.0
 40
0.0
 40
0.0
 40
0.0
 40
1.0
 40
1.0
 40
1.0
 40
2.0
 40
2.0
 40
2.0
 40
3.0
 40
3.0
 40
3.0
 40
4.0
 40
4.0
 40
4.0
 40
5.0
 40
5.0
 40
5.0
 40
5.0
 10
401.8989826469211
 20
385.3208386623504
 30
0.0
 10
401.8989826469211
 20
385.3208386623504
 30
0.0
 10
401.8989826469211
 20
383.2296657028037
 30
0.0
 10
401.8989826469211
 20
383.2296657028037
 30
0.0
 10
401.8989826469211
 20
383.2296657028037
 30
0.0
 10
403.4740803027773
 20
383.2296657028037
 30
0.0
 10
403.4740803027773
 20
383.2296657028037
 30
0.0
 10
404.1431178460128
 20
383.2296657028037
 30
0.0
 10
404.6595376592518
 20
383.5597058502906
 30
0.0
 10
404.6595376592518
 20
384.2793862971594
 30
0.0
 10
404.6595376592518
 20
384.999066744028
 30
0.0
 10
404.1431178460128
 20
385.3208386623504
 30
0.0
 10
403.4740803027773
 20
385.3208386623504
 30
0.0
 10
403.4740803027773
 20
385.3208386623504
 30
0.0
 10
401.8989826469211
 20
385.3208386623504
 30
0.0
 10
401.8989826469211
 20
385.3208386623504
 30
0.0
  0
SPLINE
  5
2F6
330
2AE
100
AcDbEntity
  8
Layer 1
370
     0
100
AcDbSpline
210
0.0
220
0.0
230
1.0
 70
    11
 71
     3
 72
    20
 73
    16
 74
     0
 42
0.0000000001
 43
0.0000000001
 12
1.0
 22
0.0
 32
0.0
 13
1.0
 23
0.0
 33
0.0
 40
0.0
 40
0.0
 40
0.0
 40
0.0
 40
1.0
 40
1.0
 40
1.0
 40
2.0
 40
2.0
 40
2.0
 40
3.0
 40
3.0
 40
3.0
 40
4.0
 40
4.0
 40
4.0
 40
5.0
 40
5.0
 40
5.0
 40
5.0
 10
401.8989826469211
 20
382.6536457376699
 30
0.0
 10
401.8989826469211
 20
382.6536457376699
 30
0.0
 10
401.8989826469211
 20
380.4436169838822
 30
0.0
 10
401.8989826469211
 20
380.4436169838822
 30
0.0
 10
401.8989826469211
 20
380.4436169838822
 30
0.0
 10
403.5419486838368
 20
380.4436169838822
 30
0.0
 10
403.5419486838368
 20
380.4436169838822
 30
0.0
 10
404.2871228372963
 20
380.4436169838822
 30
0.0
 10
404.7525552373535
 20
380.8756319577325
 30
0.0
 10
404.7525552373535
 20
381.5529377301326
 30
0.0
 10
404.7525552373535
 20
382.2302435025327
 30
0.0
 10
404.2871228372963
 20
382.6536457376699
 30
0.0
 10
403.5419486838368
 20
382.6536457376699
 30
0.0
 10
403.5419486838368
 20
382.6536457376699
 30
0.0
 10
401.8989826469211
 20
382.6536457376699
 30
0.0
 10
401.8989826469211
 20
382.6536457376699
 30
0.0
  0
HATCH
  5
2F7
330
2AE
100
AcDbEntity
  8
Layer 1
 62
     7
100
AcDbHatch
 10
0.0
 20
0.0
 30
0.0
210
0.0
220
0.0
230
1.0
  2
SOLID
 70
     1
 71
     0
 91
        3
 92
        1
 93
        1
 72
     4
 94
        3
 73
     0
 74
     1
 95
       26
 96
       22
 40
0.0
 40
0.0
 40
0.0
 40
0.0
 40
1.0
 40
1.0
 40
1.0
 40
2.0
 40
2.0
 40
2.0
 40
3.0
 40
3.0
 40
3.0
 40
4.0
 40
4.0
 40
4.0
 40
5.0
 40
5.0
 40
5.0
 40
6.0
 40
6.0
 40
6.0
 40
7.0
 40
7.0
 40
7.0
 40
7.0
 10
403.5247232064105
 20
385.8968586274842
 10
404.5747883103147
 20
385.8968586274842
 10
405.3030814958965
 20
385.295689465308
 10
405.3030814958965
 20
384.2879990358725
 10
405.3030814958965
 20
383.6527234283924
 10
404.9220539352278
 20
383.1531845830312
 10
404.4139023511535
 20
382.9671494268277
 10
404.9895778067387
 20
382.7552760544848
 10
405.3960990739982
 20
382.2557372091236
 10
405.3960990739982
 20
381.5360567622549
 10
405.3960990739982
 20
380.4436169838822
 10
404.668150397965
 20
379.8679415282969
 10
403.6012043261831
 20
379.8679415282969
 10
403.6012043261831
 20
379.8679415282969
 10
401.255783319825
 20
379.8679415282969
 10
401.255783319825
 20
379.8679415282969
 10
401.255783319825
 20
379.8679415282969
 10
401.255783319825
 20
385.8968586274842
 10
401.255783319825
 20
385.8968586274842
 10
401.255783319825
 20
385.8968586274842
 10
403.5247232064105
 20
385.8968586274842
 10
403.5247232064105
 20
385.8968586274842
 97
        0
 92
        1
 93
        1
 72
     4
 94
        3
 73
     0
 74
     1
 95
       20
 96
       16
 40
0.0
 40
0.0
 40
0.0
 40
0.0
 40
1.0
 40
1.0
 40
1.0
 40
2.0
 40
2.0
 40
2.0
 40
3.0
 40
3.0
 40
3.0
 40
4.0
 40
4.0
 40
4.0
 40
5.0
 40
5.0
 40
5.0
 40
5.0
 10
401.8989826469211
 20
385.3208386623504
 10
401.8989826469211
 20
385.3208386623504
 10
401.8989826469211
 20
383.2296657028037
 10
401.8989826469211
 20
383.2296657028037
 10
401.8989826469211
 20
383.2296657028037
 10
403.4740803027773
 20
383.2296657028037
 10
403.4740803027773
 20
383.2296657028037
 10
404.1431178460128
 20
383.2296657028037
 10
404.6595376592518
 20
383.5597058502906
 10
404.6595376592518
 20
384.2793862971594
 10
404.6595376592518
 20
384.999066744028
 10
404.1431178460128
 20
385.3208386623504
 10
403.4740803027773
 20
385.3208386623504
 10
403.4740803027773
 20
385.3208386623504
 10
401.8989826469211
 20
385.3208386623504
 10
401.8989826469211
 20
385.3208386623504
 97
        0
 92
        1
 93
        1
 72
     4
 94
        3
 73
     0
 74
     1
 95
       20
 96
       16
 40
0.0
 40
0.0
 40
0.0
 40
0.0
 40
1.0
 40
1.0
 40
1.0
 40
2.0
 40
2.0
 40
2.0
 40
3.0
 40
3.0
 40
3.0
 40
4.0
 40
4.0
 40
4.0
 40
5.0
 40
5.0
 40
5.0
 40
5.0
 10
401.8989826469211
 20
382.6536457376699
 10
401.8989826469211
 20
382.6536457376699
 10
401.8989826469211
 20
380.4436169838822
 10
401.8989826469211
 20
380.4436169838822
 10
401.8989826469211
 20
380.4436169838822
 10
403.5419486838368
 20
380.4436169838822
 10
403.5419486838368
 20
380.4436169838822
 10
404.2871228372963
 20
380.4436169838822
 10
404.7525552373535
 20
380.8756319577325
 10
404.7525552373535
 20
381.5529377301326
 10
404.7525552373535
 20
382.2302435025327
 10
404.2871228372963
 20
382.6536457376699
 10
403.5419486838368
 20
382.6536457376699
 10
403.5419486838368
 20
382.6536457376699
 10
401.8989826469211
 20
382.6536457376699
 10
401.8989826469211
 20
382.6536457376699
 97
        0
 75
     2
 76
     1
 98
        0
  0
SPLINE
  5
2F8
330
2AE
100
AcDbEntity
  8
Layer 1
370
     0
100
AcDbSpline
210
0.0
220
0.0
230
1.0
 70
    11
 71
     3
 72
    65
 73
    61
 74
     0
 42
0.0000000001
 43
0.0000000001
 12
1.0
 22
0.0
 32
0.0
 13
1.0
 23
0.0
 33
0.0
 40
0.0
 40
0.0
 40
0.0
 40
0.0
 40
1.0
 40
1.0
 40
1.0
 40
2.0
 40
2.0
 40
2.0
 40
3.0
 40
3.0
 40
3.0
 40
4.0
 40
4.0
 40
4.0
 40
5.0
 40
5.0
 40
5.0
 40
6.0
 40
6.0
 40
6.0
 40
7.0
 40
7.0
 40
7.0
 40
8.0
 40
8.0
 40
8.0
 40
9.0
 40
9.0
 40
9.0
 40
10.0
 40
10.0
 40
10.0
 40
11.0
 40
11.0
 40
11.0
 40
12.0
 40
12.0
 40
12.0
 40
13.0
 40
13.0
 40
13.0
 40
14.0
 40
14.0
 40
14.0
 40
15.0
 40
15.0
 40
15.0
 40
16.0
 40
16.0
 40
16.0
 40
17.0
 40
17.0
 40
17.0
 40
18.0
 40
18.0
 40
18.0
 40
19.0
 40
19.0
 40
19.0
 40
20.0
 40
20.0
 40
20.0
 40
20.0
 10
410.2392143071625
 20
385.2870767265949
 30
0.0
 10
410.2392143071625
 20
385.2870767265949
 30
0.0
 10
409.8240803011898
 20
384.8722872301709
 30
0.0
 10
409.8240803011898
 20
384.8722872301709
 30
0.0
 10
409.4599337083989
 20
385.2192083455355
 30
0.0
 10
409.0451442119748
 20
385.3973197821229
 30
0.0
 10
408.4184813432079
 20
385.3973197821229
 30
0.0
 10
407.6057833182375
 20
385.3973197821229
 30
0.0
 10
407.1400064086317
 20
384.9484238403949
 30
0.0
 10
407.1400064086317
 20
384.2711180679947
 30
0.0
 10
407.1400064086317
 20
383.9744953467147
 30
0.0
 10
407.2247557575689
 20
383.7292045481649
 30
0.0
 10
407.4111354233208
 20
383.5683185890038
 30
0.0
 10
407.5971705795243
 20
383.4074326298426
 30
0.0
 10
407.8851805620913
 20
383.3058023130278
 30
0.0
 10
408.1983397417004
 20
383.2548148998461
 30
0.0
 10
408.1983397417004
 20
383.2548148998461
 30
0.0
 10
408.9011392206914
 20
383.1449163538666
 30
0.0
 10
408.9011392206914
 20
383.1449163538666
 30
0.0
 10
409.4599337083989
 20
383.0601670049294
 30
0.0
 10
409.722449984375
 20
382.9585366881146
 30
0.0
 10
409.9935789990641
 20
382.7129013800163
 30
0.0
 10
410.3153509173865
 20
382.4335041361625
 30
0.0
 10
410.5017305831385
 20
382.026982868903
 30
0.0
 10
410.5017305831385
 20
381.5274440235418
 30
0.0
 10
410.5017305831385
 20
380.469110690473
 30
0.0
 10
409.6800753099064
 20
379.8172986246637
 30
0.0
 10
408.4184813432079
 20
379.8172986246637
 30
0.0
 10
407.5210339693003
 20
379.8172986246637
 30
0.0
 10
406.9198648071242
 20
380.0457084553358
 30
0.0
 10
406.3610703194167
 20
380.6131156817565
 30
0.0
 10
406.3610703194167
 20
380.6131156817565
 30
0.0
 10
406.7927407837185
 20
381.0447861460582
 30
0.0
 10
406.7927407837185
 20
381.0447861460582
 30
0.0
 10
407.2922796290797
 20
380.545247300697
 30
0.0
 10
407.7580565386855
 20
380.392974080249
 30
0.0
 10
408.4353623110856
 20
380.392974080249
 30
0.0
 10
409.3245414558286
 20
380.392974080249
 30
0.0
 10
409.8664549756584
 20
380.7994953475085
 30
0.0
 10
409.8664549756584
 20
381.510563055664
 30
0.0
 10
409.8664549756584
 20
381.8323349739864
 30
0.0
 10
409.7734373975567
 20
382.0862385112493
 30
0.0
 10
409.5701767639269
 20
382.2643499478367
 30
0.0
 10
409.3837970981749
 20
382.4335041361625
 30
0.0
 10
409.2146429098491
 20
382.4927597785088
 30
0.0
 10
408.7826279359988
 20
382.5606281595682
 30
0.0
 10
408.7826279359988
 20
382.5606281595682
 30
0.0
 10
408.0798284570079
 20
382.662258476383
 30
0.0
 10
408.0798284570079
 20
382.662258476383
 30
0.0
 10
407.6057833182375
 20
382.7383950866071
 30
0.0
 10
407.2502494641597
 20
382.8824000778905
 30
0.0
 10
406.9791204494705
 20
383.1194226472757
 30
0.0
 10
406.6742294990259
 20
383.3905516619649
 30
0.0
 10
406.5133435398648
 20
383.7629664839204
 30
0.0
 10
406.5133435398648
 20
384.2538925905685
 30
0.0
 10
406.5133435398648
 20
385.2784639878818
 30
0.0
 10
407.2502494641597
 20
385.9475015311173
 30
0.0
 10
408.4439750497987
 20
385.9475015311173
 30
0.0
 10
409.2146429098491
 20
385.9475015311173
 30
0.0
 10
409.722449984375
 20
385.7442408974875
 30
0.0
 10
410.2392143071625
 20
385.2870767265949
 30
0.0
  0
HATCH
  5
2F9
330
2AE
100
AcDbEntity
  8
Layer 1
 62
     7
100
AcDbHatch
 10
0.0
 20
0.0
 30
0.0
210
0.0
220
0.0
230
1.0
  2
SOLID
 70
     1
 71
     0
 91
        1
 92
        1
 93
        1
 72
     4
 94
        3
 73
     0
 74
     1
 95
       65
 96
       61
 40
0.0
 40
0.0
 40
0.0
 40
0.0
 40
1.0
 40
1.0
 40
1.0
 40
2.0
 40
2.0
 40
2.0
 40
3.0
 40
3.0
 40
3.0
 40
4.0
 40
4.0
 40
4.0
 40
5.0
 40
5.0
 40
5.0
 40
6.0
 40
6.0
 40
6.0
 40
7.0
 40
7.0
 40
7.0
 40
8.0
 40
8.0
 40
8.0
 40
9.0
 40
9.0
 40
9.0
 40
10.0
 40
10.0
 40
10.0
 40
11.0
 40
11.0
 40
11.0
 40
12.0
 40
12.0
 40
12.0
 40
13.0
 40
13.0
 40
13.0
 40
14.0
 40
14.0
 40
14.0
 40
15.0
 40
15.0
 40
15.0
 40
16.0
 40
16.0
 40
16.0
 40
17.0
 40
17.0
 40
17.0
 40
18.0
 40
18.0
 40
18.0
 40
19.0
 40
19.0
 40
19.0
 40
20.0
 40
20.0
 40
20.0
 40
20.0
 10
410.2392143071625
 20
385.2870767265949
 10
410.2392143071625
 20
385.2870767265949
 10
409.8240803011898
 20
384.8722872301709
 10
409.8240803011898
 20
384.8722872301709
 10
409.4599337083989
 20
385.2192083455355
 10
409.0451442119748
 20
385.3973197821229
 10
408.4184813432079
 20
385.3973197821229
 10
407.6057833182375
 20
385.3973197821229
 10
407.1400064086317
 20
384.9484238403949
 10
407.1400064086317
 20
384.2711180679947
 10
407.1400064086317
 20
383.9744953467147
 10
407.2247557575689
 20
383.7292045481649
 10
407.4111354233208
 20
383.5683185890038
 10
407.5971705795243
 20
383.4074326298426
 10
407.8851805620913
 20
383.3058023130278
 10
408.1983397417004
 20
383.2548148998461
 10
408.1983397417004
 20
383.2548148998461
 10
408.9011392206914
 20
383.1449163538666
 10
408.9011392206914
 20
383.1449163538666
 10
409.4599337083989
 20
383.0601670049294
 10
409.722449984375
 20
382.9585366881146
 10
409.9935789990641
 20
382.7129013800163
 10
410.3153509173865
 20
382.4335041361625
 10
410.5017305831385
 20
382.026982868903
 10
410.5017305831385
 20
381.5274440235418
 10
410.5017305831385
 20
380.469110690473
 10
409.6800753099064
 20
379.8172986246637
 10
408.4184813432079
 20
379.8172986246637
 10
407.5210339693003
 20
379.8172986246637
 10
406.9198648071242
 20
380.0457084553358
 10
406.3610703194167
 20
380.6131156817565
 10
406.3610703194167
 20
380.6131156817565
 10
406.7927407837185
 20
381.0447861460582
 10
406.7927407837185
 20
381.0447861460582
 10
407.2922796290797
 20
380.545247300697
 10
407.7580565386855
 20
380.392974080249
 10
408.4353623110856
 20
380.392974080249
 10
409.3245414558286
 20
380.392974080249
 10
409.8664549756584
 20
380.7994953475085
 10
409.8664549756584
 20
381.510563055664
 10
409.8664549756584
 20
381.8323349739864
 10
409.7734373975567
 20
382.0862385112493
 10
409.5701767639269
 20
382.2643499478367
 10
409.3837970981749
 20
382.4335041361625
 10
409.2146429098491
 20
382.4927597785088
 10
408.7826279359988
 20
382.5606281595682
 10
408.7826279359988
 20
382.5606281595682
 10
408.0798284570079
 20
382.662258476383
 10
408.0798284570079
 20
382.662258476383
 10
407.6057833182375
 20
382.7383950866071
 10
407.2502494641597
 20
382.8824000778905
 10
406.9791204494705
 20
383.1194226472757
 10
406.6742294990259
 20
383.3905516619649
 10
406.5133435398648
 20
383.7629664839204
 10
406.5133435398648
 20
384.2538925905685
 10
406.5133435398648
 20
385.2784639878818
 10
407.2502494641597
 20
385.9475015311173
 10
408.4439750497987
 20
385.9475015311173
 10
409.2146429098491
 20
385.9475015311173
 10
409.722449984375
 20
385.7442408974875
 10
410.2392143071625
 20
385.2870767265949
 97
        0
 75
     2
 76
     1
 98
        0
  0
SPLINE
  5
2FA
330
2AE
100
AcDbEntity
  8
Layer 1
370
     0
100
AcDbSpline
210
0.0
220
0.0
230
1.0
 70
    11
 71
     3
 72
    29
 73
    25
 74
     0
 42
0.0000000001
 43
0.0000000001
 12
1.0
 22
0.0
 32
0.0
 13
1.0
 23
0.0
 33
0.0
 40
0.0
 40
0.0
 40
0.0
 40
0.0
 40
1.0
 40
1.0
 40
1.0
 40
2.0
 40
2.0
 40
2.0
 40
3.0
 40
3.0
 40
3.0
 40
4.0
 40
4.0
 40
4.0
 40
5.0
 40
5.0
 40
5.0
 40
6.0
 40
6.0
 40
6.0
 40
7.0
 40
7.0
 40
7.0
 40
8.0
 40
8.0
 40
8.0
 40
8.0
 10
411.4071016766621
 20
381.5274440235418
 30
0.0
 10
411.4071016766621
 20
382.2302435025327
 30
0.0
 10
411.805354714757
 20
382.7046331508516
 30
0.0
 10
412.3131617892828
 20
382.99229862387
 30
0.0
 10
411.8391166505124
 20
383.2634276385592
 30
0.0
 10
411.5259574709033
 20
383.7037108415741
 30
0.0
 10
411.5259574709033
 20
384.330373710341
 30
0.0
 10
411.5259574709033
 20
385.2701957587172
 30
0.0
 10
412.2287569498942
 20
385.9475015311173
 30
0.0
 10
413.1854599661481
 20
385.9475015311173
 30
0.0
 10
414.142162982402
 20
385.9475015311173
 30
0.0
 10
414.8449624613929
 20
385.2701957587172
 30
0.0
 10
414.8449624613929
 20
384.330373710341
 30
0.0
 10
414.8449624613929
 20
383.7037108415741
 30
0.0
 10
414.5400715109483
 20
383.2634276385592
 30
0.0
 10
414.0660263721779
 20
382.99229862387
 30
0.0
 10
414.5741779562523
 20
382.7046331508516
 30
0.0
 10
414.9634737460855
 20
382.2302435025327
 30
0.0
 10
414.9634737460855
 20
381.5274440235418
 30
0.0
 10
414.9634737460855
 20
380.5114853649416
 30
0.0
 10
414.1845376568705
 20
379.8172986246637
 30
0.0
 10
413.1854599661481
 20
379.8172986246637
 30
0.0
 10
412.1863822754257
 20
379.8172986246637
 30
0.0
 10
411.4071016766621
 20
380.5114853649416
 30
0.0
 10
411.4071016766621
 20
381.5274440235418
 30
0.0
  0
SPLINE
  5
2FB
330
2AE
100
AcDbEntity
  8
Layer 1
370
     0
100
AcDbSpline
210
0.0
220
0.0
230
1.0
 70
    11
 71
     3
 72
    17
 73
    13
 74
     0
 42
0.0000000001
 43
0.0000000001
 12
1.0
 22
0.0
 32
0.0
 13
1.0
 23
0.0
 33
0.0
 40
0.0
 40
0.0
 40
0.0
 40
0.0
 40
1.0
 40
1.0
 40
1.0
 40
2.0
 40
2.0
 40
2.0
 40
3.0
 40
3.0
 40
3.0
 40
4.0
 40
4.0
 40
4.0
 40
4.0
 10
414.3540363547448
 20
381.5360567622549
 30
0.0
 10
414.3540363547448
 20
382.2050943054904
 30
0.0
 10
413.8458847706705
 20
382.7129013800163
 30
0.0
 10
413.1854599661481
 20
382.7129013800163
 30
0.0
 10
412.5250351616257
 20
382.7129013800163
 30
0.0
 10
412.0168835775514
 20
382.2050943054904
 30
0.0
 10
412.0168835775514
 20
381.5360567622549
 30
0.0
 10
412.0168835775514
 20
380.8670192190194
 30
0.0
 10
412.5250351616257
 20
380.3592121444935
 30
0.0
 10
413.1854599661481
 20
380.3592121444935
 30
0.0
 10
413.8458847706705
 20
380.3592121444935
 30
0.0
 10
414.3540363547448
 20
380.8670192190194
 30
0.0
 10
414.3540363547448
 20
381.5360567622549
 30
0.0
  0
SPLINE
  5
2FC
330
2AE
100
AcDbEntity
  8
Layer 1
370
     0
100
AcDbSpline
210
0.0
220
0.0
230
1.0
 70
    11
 71
     3
 72
    17
 73
    13
 74
     0
 42
0.0000000001
 43
0.0000000001
 12
1.0
 22
0.0
 32
0.0
 13
1.0
 23
0.0
 33
0.0
 40
0.0
 40
0.0
 40
0.0
 40
0.0
 40
1.0
 40
1.0
 40
1.0
 40
2.0
 40
2.0
 40
2.0
 40
3.0
 40
3.0
 40
3.0
 40
4.0
 40
4.0
 40
4.0
 40
4.0
 10
414.2355250700522
 20
384.3217609716279
 30
0.0
 10
414.2355250700522
 20
384.9484238403949
 30
0.0
 10
413.8035100962019
 20
385.4055880112875
 30
0.0
 10
413.1854599661481
 20
385.4055880112875
 30
0.0
 10
412.5674098360943
 20
385.4055880112875
 30
0.0
 10
412.135394862244
 20
384.9484238403949
 30
0.0
 10
412.135394862244
 20
384.3217609716279
 30
0.0
 10
412.135394862244
 20
383.6868298736964
 30
0.0
 10
412.5674098360943
 20
383.2465466706814
 30
0.0
 10
413.1854599661481
 20
383.2465466706814
 30
0.0
 10
413.8035100962019
 20
383.2465466706814
 30
0.0
 10
414.2355250700522
 20
383.6868298736964
 30
0.0
 10
414.2355250700522
 20
384.3217609716279
 30
0.0
  0
HATCH
  5
2FD
330
2AE
100
AcDbEntity
  8
Layer 1
 62
     7
100
AcDbHatch
 10
0.0
 20
0.0
 30
0.0
210
0.0
220
0.0
230
1.0
  2
SOLID
 70
     1
 71
     0
 91
        3
 92
        1
 93
        1
 72
     4
 94
        3
 73
     0
 74
     1
 95
       29
 96
       25
 40
0.0
 40
0.0
 40
0.0
 40
0.0
 40
1.0
 40
1.0
 40
1.0
 40
2.0
 40
2.0
 40
2.0
 40
3.0
 40
3.0
 40
3.0
 40
4.0
 40
4.0
 40
4.0
 40
5.0
 40
5.0
 40
5.0
 40
6.0
 40
6.0
 40
6.0
 40
7.0
 40
7.0
 40
7.0
 40
8.0
 40
8.0
 40
8.0
 40
8.0
 10
411.4071016766621
 20
381.5274440235418
 10
411.4071016766621
 20
382.2302435025327
 10
411.805354714757
 20
382.7046331508516
 10
412.3131617892828
 20
382.99229862387
 10
411.8391166505124
 20
383.2634276385592
 10
411.5259574709033
 20
383.7037108415741
 10
411.5259574709033
 20
384.330373710341
 10
411.5259574709033
 20
385.2701957587172
 10
412.2287569498942
 20
385.9475015311173
 10
413.1854599661481
 20
385.9475015311173
 10
414.142162982402
 20
385.9475015311173
 10
414.8449624613929
 20
385.2701957587172
 10
414.8449624613929
 20
384.330373710341
 10
414.8449624613929
 20
383.7037108415741
 10
414.5400715109483
 20
383.2634276385592
 10
414.0660263721779
 20
382.99229862387
 10
414.5741779562523
 20
382.7046331508516
 10
414.9634737460855
 20
382.2302435025327
 10
414.9634737460855
 20
381.5274440235418
 10
414.9634737460855
 20
380.5114853649416
 10
414.1845376568705
 20
379.8172986246637
 10
413.1854599661481
 20
379.8172986246637
 10
412.1863822754257
 20
379.8172986246637
 10
411.4071016766621
 20
380.5114853649416
 10
411.4071016766621
 20
381.5274440235418
 97
        0
 92
        1
 93
        1
 72
     4
 94
        3
 73
     0
 74
     1
 95
       17
 96
       13
 40
0.0
 40
0.0
 40
0.0
 40
0.0
 40
1.0
 40
1.0
 40
1.0
 40
2.0
 40
2.0
 40
2.0
 40
3.0
 40
3.0
 40
3.0
 40
4.0
 40
4.0
 40
4.0
 40
4.0
 10
414.3540363547448
 20
381.5360567622549
 10
414.3540363547448
 20
382.2050943054904
 10
413.8458847706705
 20
382.7129013800163
 10
413.1854599661481
 20
382.7129013800163
 10
412.5250351616257
 20
382.7129013800163
 10
412.0168835775514
 20
382.2050943054904
 10
412.0168835775514
 20
381.5360567622549
 10
412.0168835775514
 20
380.8670192190194
 10
412.5250351616257
 20
380.3592121444935
 10
413.1854599661481
 20
380.3592121444935
 10
413.8458847706705
 20
380.3592121444935
 10
414.3540363547448
 20
380.8670192190194
 10
414.3540363547448
 20
381.5360567622549
 97
        0
 92
        1
 93
        1
 72
     4
 94
        3
 73
     0
 74
     1
 95
       17
 96
       13
 40
0.0
 40
0.0
 40
0.0
 40
0.0
 40
1.0
 40
1.0
 40
1.0
 40
2.0
 40
2.0
 40
2.0
 40
3.0
 40
3.0
 40
3.0
 40
4.0
 40
4.0
 40
4.0
 40
4.0
 10
414.2355250700522
 20
384.3217609716279
 10
414.2355250700522
 20
384.9484238403949
 10
413.8035100962019
 20
385.4055880112875
 10
413.1854599661481
 20
385.4055880112875
 10
412.5674098360943
 20
385.4055880112875
 10
412.135394862244
 20
384.9484238403949
 10
412.135394862244
 20
384.3217609716279
 10
412.135394862244
 20
383.6868298736964
 10
412.5674098360943
 20
383.2465466706814
 10
413.1854599661481
 20
383.2465466706814
 10
413.8035100962019
 20
383.2465466706814
 10
414.2355250700522
 20
383.6868298736964
 10
414.2355250700522
 20
384.3217609716279
 97
        0
 75
     2
 76
     1
 98
        0
  0
SPLINE
  5
2FE
330
2AE
100
AcDbEntity
  8
Layer 1
370
     0
100
AcDbSpline
210
0.0
220
0.0
230
1.0
 70
    11
 71
     3
 72
    62
 73
    58
 74
     0
 42
0.0000000001
 43
0.0000000001
 12
1.0
 22
0.0
 32
0.0
 13
1.0
 23
0.0
 33
0.0
 40
0.0
 40
0.0
 40
0.0
 40
0.0
 40
1.0
 40
1.0
 40
1.0
 40
2.0
 40
2.0
 40
2.0
 40
3.0
 40
3.0
 40
3.0
 40
4.0
 40
4.0
 40
4.0
 40
5.0
 40
5.0
 40
5.0
 40
6.0
 40
6.0
 40
6.0
 40
7.0
 40
7.0
 40
7.0
 40
8.0
 40
8.0
 40
8.0
 40
9.0
 40
9.0
 40
9.0
 40
10.0
 40
10.0
 40
10.0
 40
11.0
 40
11.0
 40
11.0
 40
12.0
 40
12.0
 40
12.0
 40
13.0
 40
13.0
 40
13.0
 40
14.0
 40
14.0
 40
14.0
 40
15.0
 40
15.0
 40
15.0
 40
16.0
 40
16.0
 40
16.0
 40
17.0
 40
17.0
 40
17.0
 40
18.0
 40
18.0
 40
18.0
 40
19.0
 40
19.0
 40
19.0
 40
19.0
 10
416.410758359439
 20
380.2489690889656
 30
0.0
 10
416.1482420834629
 20
380.5200981036547
 30
0.0
 10
416.0214625696058
 20
380.8670192190194
 30
0.0
 10
415.9873561243018
 20
381.2990341928697
 30
0.0
 10
415.9873561243018
 20
381.2990341928697
 30
0.0
 10
416.597138025191
 20
381.2990341928697
 30
0.0
 10
416.597138025191
 20
381.2990341928697
 30
0.0
 10
416.6732746354151
 20
380.6978650306936
 30
0.0
 10
416.9867783245728
 20
380.3592121444935
 30
0.0
 10
417.6217094225043
 20
380.3592121444935
 30
0.0
 10
417.9179876342358
 20
380.3592121444935
 30
0.0
 10
418.1891166489249
 20
380.4604979517599
 30
0.0
 10
418.3668835759639
 20
380.6386093883473
 30
0.0
 10
418.6800427555731
 20
380.9517685679565
 30
0.0
 10
418.6969237234508
 20
381.43442644544
 30
0.0
 10
418.6969237234508
 20
381.8660969097418
 30
0.0
 10
418.6969237234508
 20
382.6030028340368
 30
0.0
 10
418.5532632417159
 20
383.3226832809054
 30
0.0
 10
417.6809650648506
 20
383.3226832809054
 30
0.0
 10
417.1559325128985
 20
383.3226832809054
 30
0.0
 10
416.8003986588208
 20
383.0856607115203
 30
0.0
 10
416.6818873741282
 20
382.7297823478939
 30
0.0
 10
416.6818873741282
 20
382.7297823478939
 30
0.0
 10
416.1313611155852
 20
382.7297823478939
 30
0.0
 10
416.1313611155852
 20
382.7297823478939
 30
0.0
 10
416.1313611155852
 20
382.7297823478939
 30
0.0
 10
416.1313611155852
 20
385.8968586274842
 30
0.0
 10
416.1313611155852
 20
385.8968586274842
 30
0.0
 10
416.1313611155852
 20
385.8968586274842
 30
0.0
 10
419.1795816009343
 20
385.8968586274842
 30
0.0
 10
419.1795816009343
 20
385.8968586274842
 30
0.0
 10
419.1795816009343
 20
385.8968586274842
 30
0.0
 10
419.1795816009343
 20
385.3549451076543
 30
0.0
 10
419.1795816009343
 20
385.3549451076543
 30
0.0
 10
419.1795816009343
 20
385.3549451076543
 30
0.0
 10
416.6818873741282
 20
385.3549451076543
 30
0.0
 10
416.6818873741282
 20
385.3549451076543
 30
0.0
 10
416.6818873741282
 20
385.3549451076543
 30
0.0
 10
416.6818873741282
 20
383.441194565598
 30
0.0
 10
416.6818873741282
 20
383.441194565598
 30
0.0
 10
416.9189099435134
 20
383.7037108415741
 30
0.0
 10
417.2913247654689
 20
383.8559840620221
 30
0.0
 10
417.7657144137877
 20
383.8559840620221
 30
0.0
 10
418.2146103555158
 20
383.8559840620221
 30
0.0
 10
418.5701442095936
 20
383.7119790707387
 30
0.0
 10
418.8071667789788
 20
383.4749565013535
 30
0.0
 10
419.2474499819937
 20
383.0346732983386
 30
0.0
 10
419.30670562434
 20
382.4335041361625
 30
0.0
 10
419.30670562434
 20
381.8660969097418
 30
0.0
 10
419.30670562434
 20
381.2649277475657
 30
0.0
 10
419.2560627207068
 20
380.6978650306936
 30
0.0
 10
418.8240477468565
 20
380.2658500568432
 30
0.0
 10
418.5446505030027
 20
379.9864528129895
 30
0.0
 10
418.155010203621
 20
379.8172986246637
 30
0.0
 10
417.6217094225043
 20
379.8172986246637
 30
0.0
 10
417.0966768705522
 20
379.8172986246637
 30
0.0
 10
416.6732746354151
 20
379.9864528129895
 30
0.0
 10
416.410758359439
 20
380.2489690889656
 30
0.0
  0
HATCH
  5
2FF
330
2AE
100
AcDbEntity
  8
Layer 1
 62
     7
100
AcDbHatch
 10
0.0
 20
0.0
 30
0.0
210
0.0
220
0.0
230
1.0
  2
SOLID
 70
     1
 71
     0
 91
        1
 92
        1
 93
        1
 72
     4
 94
        3
 73
     0
 74
     1
 95
       62
 96
       58
 40
0.0
 40
0.0
 40
0.0
 40
0.0
 40
1.0
 40
1.0
 40
1.0
 40
2.0
 40
2.0
 40
2.0
 40
3.0
 40
3.0
 40
3.0
 40
4.0
 40
4.0
 40
4.0
 40
5.0
 40
5.0
 40
5.0
 40
6.0
 40
6.0
 40
6.0
 40
7.0
 40
7.0
 40
7.0
 40
8.0
 40
8.0
 40
8.0
 40
9.0
 40
9.0
 40
9.0
 40
10.0
 40
10.0
 40
10.0
 40
11.0
 40
11.0
 40
11.0
 40
12.0
 40
12.0
 40
12.0
 40
13.0
 40
13.0
 40
13.0
 40
14.0
 40
14.0
 40
14.0
 40
15.0
 40
15.0
 40
15.0
 40
16.0
 40
16.0
 40
16.0
 40
17.0
 40
17.0
 40
17.0
 40
18.0
 40
18.0
 40
18.0
 40
19.0
 40
19.0
 40
19.0
 40
19.0
 10
416.410758359439
 20
380.2489690889656
 10
416.1482420834629
 20
380.5200981036547
 10
416.0214625696058
 20
380.8670192190194
 10
415.9873561243018
 20
381.2990341928697
 10
415.9873561243018
 20
381.2990341928697
 10
416.597138025191
 20
381.2990341928697
 10
416.597138025191
 20
381.2990341928697
 10
416.6732746354151
 20
380.6978650306936
 10
416.9867783245728
 20
380.3592121444935
 10
417.6217094225043
 20
380.3592121444935
 10
417.9179876342358
 20
380.3592121444935
 10
418.1891166489249
 20
380.4604979517599
 10
418.3668835759639
 20
380.6386093883473
 10
418.6800427555731
 20
380.9517685679565
 10
418.6969237234508
 20
381.43442644544
 10
418.6969237234508
 20
381.8660969097418
 10
418.6969237234508
 20
382.6030028340368
 10
418.5532632417159
 20
383.3226832809054
 10
417.6809650648506
 20
383.3226832809054
 10
417.1559325128985
 20
383.3226832809054
 10
416.8003986588208
 20
383.0856607115203
 10
416.6818873741282
 20
382.7297823478939
 10
416.6818873741282
 20
382.7297823478939
 10
416.1313611155852
 20
382.7297823478939
 10
416.1313611155852
 20
382.7297823478939
 10
416.1313611155852
 20
382.7297823478939
 10
416.1313611155852
 20
385.8968586274842
 10
416.1313611155852
 20
385.8968586274842
 10
416.1313611155852
 20
385.8968586274842
 10
419.1795816009343
 20
385.8968586274842
 10
419.1795816009343
 20
385.8968586274842
 10
419.1795816009343
 20
385.8968586274842
 10
419.1795816009343
 20
385.3549451076543
 10
419.1795816009343
 20
385.3549451076543
 10
419.1795816009343
 20
385.3549451076543
 10
416.6818873741282
 20
385.3549451076543
 10
416.6818873741282
 20
385.3549451076543
 10
416.6818873741282
 20
385.3549451076543
 10
416.6818873741282
 20
383.441194565598
 10
416.6818873741282
 20
383.441194565598
 10
416.9189099435134
 20
383.7037108415741
 10
417.2913247654689
 20
383.8559840620221
 10
417.7657144137877
 20
383.8559840620221
 10
418.2146103555158
 20
383.8559840620221
 10
418.5701442095936
 20
383.7119790707387
 10
418.8071667789788
 20
383.4749565013535
 10
419.2474499819937
 20
383.0346732983386
 10
419.30670562434
 20
382.4335041361625
 10
419.30670562434
 20
381.8660969097418
 10
419.30670562434
 20
381.2649277475657
 10
419.2560627207068
 20
380.6978650306936
 10
418.8240477468565
 20
380.2658500568432
 10
418.5446505030027
 20
379.9864528129895
 10
418.155010203621
 20
379.8172986246637
 10
417.6217094225043
 20
379.8172986246637
 10
417.0966768705522
 20
379.8172986246637
 10
416.6732746354151
 20
379.9864528129895
 10
416.410758359439
 20
380.2489690889656
 97
        0
 75
     2
 76
     1
 98
        0
  0
SPLINE
  5
300
330
2AE
100
AcDbEntity
  8
Layer 1
370
     0
100
AcDbSpline
210
0.0
220
0.0
230
1.0
 70
    11
 71
     3
 72
    65
 73
    61
 74
     0
 42
0.0000000001
 43
0.0000000001
 12
1.0
 22
0.0
 32
0.0
 13
1.0
 23
0.0
 33
0.0
 40
0.0
 40
0.0
 40
0.0
 40
0.0
 40
1.0
 40
1.0
 40
1.0
 40
2.0
 40
2.0
 40
2.0
 40
3.0
 40
3.0
 40
3.0
 40
4.0
 40
4.0
 40
4.0
 40
5.0
 40
5.0
 40
5.0
 40
6.0
 40
6.0
 40
6.0
 40
7.0
 40
7.0
 40
7.0
 40
8.0
 40
8.0
 40
8.0
 40
9.0
 40
9.0
 40
9.0
 40
10.0
 40
10.0
 40
10.0
 40
11.0
 40
11.0
 40
11.0
 40
12.0
 40
12.0
 40
12.0
 40
13.0
 40
13.0
 40
13.0
 40
14.0
 40
14.0
 40
14.0
 40
15.0
 40
15.0
 40
15.0
 40
16.0
 40
16.0
 40
16.0
 40
17.0
 40
17.0
 40
17.0
 40
18.0
 40
18.0
 40
18.0
 40
19.0
 40
19.0
 40
19.0
 40
20.0
 40
20.0
 40
20.0
 40
20.0
 10
426.1648572068269
 20
385.2870767265949
 30
0.0
 10
426.1648572068269
 20
385.2870767265949
 30
0.0
 10
425.7497232008542
 20
384.8722872301709
 30
0.0
 10
425.7497232008542
 20
384.8722872301709
 30
0.0
 10
425.3855766080633
 20
385.2192083455355
 30
0.0
 10
424.9707871116393
 20
385.3973197821229
 30
0.0
 10
424.3441242428723
 20
385.3973197821229
 30
0.0
 10
423.5314262179019
 20
385.3973197821229
 30
0.0
 10
423.0656493082961
 20
384.9484238403949
 30
0.0
 10
423.0656493082961
 20
384.2711180679947
 30
0.0
 10
423.0656493082961
 20
383.9744953467147
 30
0.0
 10
423.1503986572333
 20
383.7292045481649
 30
0.0
 10
423.3367783229853
 20
383.5683185890038
 30
0.0
 10
423.5228134791888
 20
383.4074326298426
 30
0.0
 10
423.8108234617557
 20
383.3058023130278
 30
0.0
 10
424.1239826413649
 20
383.2548148998461
 30
0.0
 10
424.1239826413649
 20
383.2548148998461
 30
0.0
 10
424.8267821203558
 20
383.1449163538666
 30
0.0
 10
424.8267821203558
 20
383.1449163538666
 30
0.0
 10
425.3855766080633
 20
383.0601670049294
 30
0.0
 10
425.6480928840394
 20
382.9585366881146
 30
0.0
 10
425.9192218987286
 20
382.7129013800163
 30
0.0
 10
426.2409938170509
 20
382.4335041361625
 30
0.0
 10
426.4273734828029
 20
382.026982868903
 30
0.0
 10
426.4273734828029
 20
381.5274440235418
 30
0.0
 10
426.4273734828029
 20
380.469110690473
 30
0.0
 10
425.6057182095708
 20
379.8172986246637
 30
0.0
 10
424.3441242428723
 20
379.8172986246637
 30
0.0
 10
423.4466768689647
 20
379.8172986246637
 30
0.0
 10
422.8455077067886
 20
380.0457084553358
 30
0.0
 10
422.2867132190811
 20
380.6131156817565
 30
0.0
 10
422.2867132190811
 20
380.6131156817565
 30
0.0
 10
422.7183836833829
 20
381.0447861460582
 30
0.0
 10
422.7183836833829
 20
381.0447861460582
 30
0.0
 10
423.2179225287442
 20
380.545247300697
 30
0.0
 10
423.6836994383499
 20
380.392974080249
 30
0.0
 10
424.3613497202986
 20
380.392974080249
 30
0.0
 10
425.250184355493
 20
380.392974080249
 30
0.0
 10
425.7920978753228
 20
380.7994953475085
 30
0.0
 10
425.7920978753228
 20
381.510563055664
 30
0.0
 10
425.7920978753228
 20
381.8323349739864
 30
0.0
 10
425.6990802972211
 20
382.0862385112493
 30
0.0
 10
425.4958196635914
 20
382.2643499478367
 30
0.0
 10
425.3094399978393
 20
382.4335041361625
 30
0.0
 10
425.1402858095136
 20
382.4927597785088
 30
0.0
 10
424.7082708356633
 20
382.5606281595682
 30
0.0
 10
424.7082708356633
 20
382.5606281595682
 30
0.0
 10
424.0054713566723
 20
382.662258476383
 30
0.0
 10
424.0054713566723
 20
382.662258476383
 30
0.0
 10
423.5314262179019
 20
382.7383950866071
 30
0.0
 10
423.1758923638241
 20
382.8824000778905
 30
0.0
 10
422.904763349135
 20
383.1194226472757
 30
0.0
 10
422.5998723986903
 20
383.3905516619649
 30
0.0
 10
422.4389864395292
 20
383.7629664839204
 30
0.0
 10
422.4389864395292
 20
384.2538925905685
 30
0.0
 10
422.4389864395292
 20
385.2784639878818
 30
0.0
 10
423.1758923638241
 20
385.9475015311173
 30
0.0
 10
424.3696179494632
 20
385.9475015311173
 30
0.0
 10
425.1402858095136
 20
385.9475015311173
 30
0.0
 10
425.6480928840394
 20
385.7442408974875
 30
0.0
 10
426.1648572068269
 20
385.2870767265949
 30
0.0
  0
HATCH
  5
301
330
2AE
100
AcDbEntity
  8
Layer 1
 62
     7
100
AcDbHatch
 10
0.0
 20
0.0
 30
0.0
210
0.0
220
0.0
230
1.0
  2
SOLID
 70
     1
 71
     0
 91
        1
 92
        1
 93
        1
 72
     4
 94
        3
 73
     0
 74
     1
 95
       65
 96
       61
 40
0.0
 40
0.0
 40
0.0
 40
0.0
 40
1.0
 40
1.0
 40
1.0
 40
2.0
 40
2.0
 40
2.0
 40
3.0
 40
3.0
 40
3.0
 40
4.0
 40
4.0
 40
4.0
 40
5.0
 40
5.0
 40
5.0
 40
6.0
 40
6.0
 40
6.0
 40
7.0
 40
7.0
 40
7.0
 40
8.0
 40
8.0
 40
8.0
 40
9.0
 40
9.0
 40
9.0
 40
10.0
 40
10.0
 40
10.0
 40
11.0
 40
11.0
 40
11.0
 40
12.0
 40
12.0
 40
12.0
 40
13.0
 40
13.0
 40
13.0
 40
14.0
 40
14.0
 40
14.0
 40
15.0
 40
15.0
 40
15.0
 40
16.0
 40
16.0
 40
16.0
 40
17.0
 40
17.0
 40
17.0
 40
18.0
 40
18.0
 40
18.0
 40
19.0
 40
19.0
 40
19.0
 40
20.0
 40
20.0
 40
20.0
 40
20.0
 10
426.1648572068269
 20
385.2870767265949
 10
426.1648572068269
 20
385.2870767265949
 10
425.7497232008542
 20
384.8722872301709
 10
425.7497232008542
 20
384.8722872301709
 10
425.3855766080633
 20
385.2192083455355
 10
424.9707871116393
 20
385.3973197821229
 10
424.3441242428723
 20
385.3973197821229
 10
423.5314262179019
 20
385.3973197821229
 10
423.0656493082961
 20
384.9484238403949
 10
423.0656493082961
 20
384.2711180679947
 10
423.0656493082961
 20
383.9744953467147
 10
423.1503986572333
 20
383.7292045481649
 10
423.3367783229853
 20
383.5683185890038
 10
423.5228134791888
 20
383.4074326298426
 10
423.8108234617557
 20
383.3058023130278
 10
424.1239826413649
 20
383.2548148998461
 10
424.1239826413649
 20
383.2548148998461
 10
424.8267821203558
 20
383.1449163538666
 10
424.8267821203558
 20
383.1449163538666
 10
425.3855766080633
 20
383.0601670049294
 10
425.6480928840394
 20
382.9585366881146
 10
425.9192218987286
 20
382.7129013800163
 10
426.2409938170509
 20
382.4335041361625
 10
426.4273734828029
 20
382.026982868903
 10
426.4273734828029
 20
381.5274440235418
 10
426.4273734828029
 20
380.469110690473
 10
425.6057182095708
 20
379.8172986246637
 10
424.3441242428723
 20
379.8172986246637
 10
423.4466768689647
 20
379.8172986246637
 10
422.8455077067886
 20
380.0457084553358
 10
422.2867132190811
 20
380.6131156817565
 10
422.2867132190811
 20
380.6131156817565
 10
422.7183836833829
 20
381.0447861460582
 10
422.7183836833829
 20
381.0447861460582
 10
423.2179225287442
 20
380.545247300697
 10
423.6836994383499
 20
380.392974080249
 10
424.3613497202986
 20
380.392974080249
 10
425.250184355493
 20
380.392974080249
 10
425.7920978753228
 20
380.7994953475085
 10
425.7920978753228
 20
381.510563055664
 10
425.7920978753228
 20
381.8323349739864
 10
425.6990802972211
 20
382.0862385112493
 10
425.4958196635914
 20
382.2643499478367
 10
425.3094399978393
 20
382.4335041361625
 10
425.1402858095136
 20
382.4927597785088
 10
424.7082708356633
 20
382.5606281595682
 10
424.7082708356633
 20
382.5606281595682
 10
424.0054713566723
 20
382.662258476383
 10
424.0054713566723
 20
382.662258476383
 10
423.5314262179019
 20
382.7383950866071
 10
423.1758923638241
 20
382.8824000778905
 10
422.904763349135
 20
383.1194226472757
 10
422.5998723986903
 20
383.3905516619649
 10
422.4389864395292
 20
383.7629664839204
 10
422.4389864395292
 20
384.2538925905685
 10
422.4389864395292
 20
385.2784639878818
 10
423.1758923638241
 20
385.9475015311173
 10
424.3696179494632
 20
385.9475015311173
 10
425.1402858095136
 20
385.9475015311173
 10
425.6480928840394
 20
385.7442408974875
 10
426.1648572068269
 20
385.2870767265949
 97
        0
 75
     2
 76
     1
 98
        0
  0
SPLINE
  5
302
330
2AE
100
AcDbEntity
  8
Layer 1
370
     0
100
AcDbSpline
210
0.0
220
0.0
230
1.0
 70
    11
 71
     3
 72
    53
 73
    49
 74
     0
 42
0.0000000001
 43
0.0000000001
 12
1.0
 22
0.0
 32
0.0
 13
1.0
 23
0.0
 33
0.0
 40
0.0
 40
0.0
 40
0.0
 40
0.0
 40
1.0
 40
1.0
 40
1.0
 40
2.0
 40
2.0
 40
2.0
 40
3.0
 40
3.0
 40
3.0
 40
4.0
 40
4.0
 40
4.0
 40
5.0
 40
5.0
 40
5.0
 40
6.0
 40
6.0
 40
6.0
 40
7.0
 40
7.0
 40
7.0
 40
8.0
 40
8.0
 40
8.0
 40
9.0
 40
9.0
 40
9.0
 40
10.0
 40
10.0
 40
10.0
 40
11.0
 40
11.0
 40
11.0
 40
12.0
 40
12.0
 40
12.0
 40
13.0
 40
13.0
 40
13.0
 40
14.0
 40
14.0
 40
14.0
 40
15.0
 40
15.0
 40
15.0
 40
16.0
 40
16.0
 40
16.0
 40
16.0
 10
428.3745414510661
 20
384.033750989061
 30
0.0
 10
428.3745414510661
 20
384.033750989061
 30
0.0
 10
429.2633760862606
 20
384.033750989061
 30
0.0
 10
429.2633760862606
 20
384.033750989061
 30
0.0
 10
429.2633760862606
 20
384.033750989061
 30
0.0
 10
429.2633760862606
 20
383.5683185890038
 30
0.0
 10
429.2633760862606
 20
383.5683185890038
 30
0.0
 10
429.2633760862606
 20
383.5683185890038
 30
0.0
 10
428.3745414510661
 20
383.5683185890038
 30
0.0
 10
428.3745414510661
 20
383.5683185890038
 30
0.0
 10
428.3745414510661
 20
383.5683185890038
 30
0.0
 10
428.3745414510661
 20
381.0024114715897
 30
0.0
 10
428.3745414510661
 20
381.0024114715897
 30
0.0
 10
428.3745414510661
 20
380.6131156817565
 30
0.0
 10
428.552308378105
 20
380.392974080249
 30
0.0
 10
428.9416041679382
 20
380.392974080249
 30
0.0
 10
428.9416041679382
 20
380.392974080249
 30
0.0
 10
429.2633760862606
 20
380.392974080249
 30
0.0
 10
429.2633760862606
 20
380.392974080249
 30
0.0
 10
429.2633760862606
 20
380.392974080249
 30
0.0
 10
429.2633760862606
 20
379.8679415282969
 30
0.0
 10
429.2633760862606
 20
379.8679415282969
 30
0.0
 10
429.2633760862606
 20
379.8679415282969
 30
0.0
 10
428.8317056219587
 20
379.8679415282969
 30
0.0
 10
428.8317056219587
 20
379.8679415282969
 30
0.0
 10
428.1202934042547
 20
379.8679415282969
 30
0.0
 10
427.7647595501769
 20
380.3674803736582
 30
0.0
 10
427.7647595501769
 20
380.985530503712
 30
0.0
 10
427.7647595501769
 20
380.985530503712
 30
0.0
 10
427.7647595501769
 20
383.5683185890038
 30
0.0
 10
427.7647595501769
 20
383.5683185890038
 30
0.0
 10
427.7647595501769
 20
383.5683185890038
 30
0.0
 10
427.2397269982248
 20
383.5683185890038
 30
0.0
 10
427.2397269982248
 20
383.5683185890038
 30
0.0
 10
427.2397269982248
 20
383.5683185890038
 30
0.0
 10
427.2397269982248
 20
384.033750989061
 30
0.0
 10
427.2397269982248
 20
384.033750989061
 30
0.0
 10
427.2397269982248
 20
384.033750989061
 30
0.0
 10
427.7647595501769
 20
384.033750989061
 30
0.0
 10
427.7647595501769
 20
384.033750989061
 30
0.0
 10
427.7647595501769
 20
384.033750989061
 30
0.0
 10
427.7647595501769
 20
385.3125704331858
 30
0.0
 10
427.7647595501769
 20
385.3125704331858
 30
0.0
 10
427.7647595501769
 20
385.3125704331858
 30
0.0
 10
428.3745414510661
 20
385.3125704331858
 30
0.0
 10
428.3745414510661
 20
385.3125704331858
 30
0.0
 10
428.3745414510661
 20
385.3125704331858
 30
0.0
 10
428.3745414510661
 20
384.033750989061
 30
0.0
 10
428.3745414510661
 20
384.033750989061
 30
0.0
  0
HATCH
  5
303
330
2AE
100
AcDbEntity
  8
Layer 1
 62
     7
100
AcDbHatch
 10
0.0
 20
0.0
 30
0.0
210
0.0
220
0.0
230
1.0
  2
SOLID
 70
     1
 71
     0
 91
        1
 92
        1
 93
        1
 72
     4
 94
        3
 73
     0
 74
     1
 95
       53
 96
       49
 40
0.0
 40
0.0
 40
0.0
 40
0.0
 40
1.0
 40
1.0
 40
1.0
 40
2.0
 40
2.0
 40
2.0
 40
3.0
 40
3.0
 40
3.0
 40
4.0
 40
4.0
 40
4.0
 40
5.0
 40
5.0
 40
5.0
 40
6.0
 40
6.0
 40
6.0
 40
7.0
 40
7.0
 40
7.0
 40
8.0
 40
8.0
 40
8.0
 40
9.0
 40
9.0
 40
9.0
 40
10.0
 40
10.0
 40
10.0
 40
11.0
 40
11.0
 40
11.0
 40
12.0
 40
12.0
 40
12.0
 40
13.0
 40
13.0
 40
13.0
 40
14.0
 40
14.0
 40
14.0
 40
15.0
 40
15.0
 40
15.0
 40
16.0
 40
16.0
 40
16.0
 40
16.0
 10
428.3745414510661
 20
384.033750989061
 10
428.3745414510661
 20
384.033750989061
 10
429.2633760862606
 20
384.033750989061
 10
429.2633760862606
 20
384.033750989061
 10
429.2633760862606
 20
384.033750989061
 10
429.2633760862606
 20
383.5683185890038
 10
429.2633760862606
 20
383.5683185890038
 10
429.2633760862606
 20
383.5683185890038
 10
428.3745414510661
 20
383.5683185890038
 10
428.3745414510661
 20
383.5683185890038
 10
428.3745414510661
 20
383.5683185890038
 10
428.3745414510661
 20
381.0024114715897
 10
428.3745414510661
 20
381.0024114715897
 10
428.3745414510661
 20
380.6131156817565
 10
428.552308378105
 20
380.392974080249
 10
428.9416041679382
 20
380.392974080249
 10
428.9416041679382
 20
380.392974080249
 10
429.2633760862606
 20
380.392974080249
 10
429.2633760862606
 20
380.392974080249
 10
429.2633760862606
 20
380.392974080249
 10
429.2633760862606
 20
379.8679415282969
 10
429.2633760862606
 20
379.8679415282969
 10
429.2633760862606
 20
379.8679415282969
 10
428.8317056219587
 20
379.8679415282969
 10
428.8317056219587
 20
379.8679415282969
 10
428.1202934042547
 20
379.8679415282969
 10
427.7647595501769
 20
380.3674803736582
 10
427.7647595501769
 20
380.985530503712
 10
427.7647595501769
 20
380.985530503712
 10
427.7647595501769
 20
383.5683185890038
 10
427.7647595501769
 20
383.5683185890038
 10
427.7647595501769
 20
383.5683185890038
 10
427.2397269982248
 20
383.5683185890038
 10
427.2397269982248
 20
383.5683185890038
 10
427.2397269982248
 20
383.5683185890038
 10
427.2397269982248
 20
384.033750989061
 10
427.2397269982248
 20
384.033750989061
 10
427.2397269982248
 20
384.033750989061
 10
427.7647595501769
 20
384.033750989061
 10
427.7647595501769
 20
384.033750989061
 10
427.7647595501769
 20
384.033750989061
 10
427.7647595501769
 20
385.3125704331858
 10
427.7647595501769
 20
385.3125704331858
 10
427.7647595501769
 20
385.3125704331858
 10
428.3745414510661
 20
385.3125704331858
 10
428.3745414510661
 20
385.3125704331858
 10
428.3745414510661
 20
385.3125704331858
 10
428.3745414510661
 20
384.033750989061
 10
428.3745414510661
 20
384.033750989061
 97
        0
 75
     2
 76
     1
 98
        0
  0
SPLINE
  5
304
330
2AE
100
AcDbEntity
  8
Layer 1
370
     0
100
AcDbSpline
210
0.0
220
0.0
230
1.0
 70
    11
 71
     3
 72
    35
 73
    31
 74
     0
 42
0.0000000001
 43
0.0000000001
 12
1.0
 22
0.0
 32
0.0
 13
1.0
 23
0.0
 33
0.0
 40
0.0
 40
0.0
 40
0.0
 40
0.0
 40
1.0
 40
1.0
 40
1.0
 40
2.0
 40
2.0
 40
2.0
 40
3.0
 40
3.0
 40
3.0
 40
4.0
 40
4.0
 40
4.0
 40
5.0
 40
5.0
 40
5.0
 40
6.0
 40
6.0
 40
6.0
 40
7.0
 40
7.0
 40
7.0
 40
8.0
 40
8.0
 40
8.0
 40
9.0
 40
9.0
 40
9.0
 40
10.0
 40
10.0
 40
10.0
 40
10.0
 10
433.2510741104372
 20
383.695098102861
 30
0.0
 10
433.2510741104372
 20
383.695098102861
 30
0.0
 10
432.8021781687092
 20
383.2379339319683
 30
0.0
 10
432.8021781687092
 20
383.2379339319683
 30
0.0
 10
432.5734238284886
 20
383.4666882721889
 30
0.0
 10
432.4042696401629
 20
383.5428248824129
 30
0.0
 10
432.0824977218405
 20
383.5428248824129
 30
0.0
 10
431.4727158209513
 20
383.5428248824129
 30
0.0
 10
431.0834200311181
 20
383.0601670049294
 30
0.0
 10
431.0834200311181
 20
382.4252359069979
 30
0.0
 10
431.0834200311181
 20
382.4252359069979
 30
0.0
 10
431.0834200311181
 20
379.8679415282969
 30
0.0
 10
431.0834200311181
 20
379.8679415282969
 30
0.0
 10
431.0834200311181
 20
379.8679415282969
 30
0.0
 10
430.4736381302288
 20
379.8679415282969
 30
0.0
 10
430.4736381302288
 20
379.8679415282969
 30
0.0
 10
430.4736381302288
 20
379.8679415282969
 30
0.0
 10
430.4736381302288
 20
384.033750989061
 30
0.0
 10
430.4736381302288
 20
384.033750989061
 30
0.0
 10
430.4736381302288
 20
384.033750989061
 30
0.0
 10
431.0834200311181
 20
384.033750989061
 30
0.0
 10
431.0834200311181
 20
384.033750989061
 30
0.0
 10
431.0834200311181
 20
384.033750989061
 30
0.0
 10
431.0834200311181
 20
383.5259439145352
 30
0.0
 10
431.0834200311181
 20
383.5259439145352
 30
0.0
 10
431.3118298617901
 20
383.8728650298999
 30
0.0
 10
431.7689940326828
 20
384.0847384022427
 30
0.0
 10
432.2516519101663
 20
384.0847384022427
 30
0.0
 10
432.6499049482612
 20
384.0847384022427
 30
0.0
 10
432.9544513891572
 20
383.991720824141
 30
0.0
 10
433.2510741104372
 20
383.695098102861
 30
0.0
  0
HATCH
  5
305
330
2AE
100
AcDbEntity
  8
Layer 1
 62
     7
100
AcDbHatch
 10
0.0
 20
0.0
 30
0.0
210
0.0
220
0.0
230
1.0
  2
SOLID
 70
     1
 71
     0
 91
        1
 92
        1
 93
        1
 72
     4
 94
        3
 73
     0
 74
     1
 95
       35
 96
       31
 40
0.0
 40
0.0
 40
0.0
 40
0.0
 40
1.0
 40
1.0
 40
1.0
 40
2.0
 40
2.0
 40
2.0
 40
3.0
 40
3.0
 40
3.0
 40
4.0
 40
4.0
 40
4.0
 40
5.0
 40
5.0
 40
5.0
 40
6.0
 40
6.0
 40
6.0
 40
7.0
 40
7.0
 40
7.0
 40
8.0
 40
8.0
 40
8.0
 40
9.0
 40
9.0
 40
9.0
 40
10.0
 40
10.0
 40
10.0
 40
10.0
 10
433.2510741104372
 20
383.695098102861
 10
433.2510741104372
 20
383.695098102861
 10
432.8021781687092
 20
383.2379339319683
 10
432.8021781687092
 20
383.2379339319683
 10
432.5734238284886
 20
383.4666882721889
 10
432.4042696401629
 20
383.5428248824129
 10
432.0824977218405
 20
383.5428248824129
 10
431.4727158209513
 20
383.5428248824129
 10
431.0834200311181
 20
383.0601670049294
 10
431.0834200311181
 20
382.4252359069979
 10
431.0834200311181
 20
382.4252359069979
 10
431.0834200311181
 20
379.8679415282969
 10
431.0834200311181
 20
379.8679415282969
 10
431.0834200311181
 20
379.8679415282969
 10
430.4736381302288
 20
379.8679415282969
 10
430.4736381302288
 20
379.8679415282969
 10
430.4736381302288
 20
379.8679415282969
 10
430.4736381302288
 20
384.033750989061
 10
430.4736381302288
 20
384.033750989061
 10
430.4736381302288
 20
384.033750989061
 10
431.0834200311181
 20
384.033750989061
 10
431.0834200311181
 20
384.033750989061
 10
431.0834200311181
 20
384.033750989061
 10
431.0834200311181
 20
383.5259439145352
 10
431.0834200311181
 20
383.5259439145352
 10
431.3118298617901
 20
383.8728650298999
 10
431.7689940326828
 20
384.0847384022427
 10
432.2516519101663
 20
384.0847384022427
 10
432.6499049482612
 20
384.0847384022427
 10
432.9544513891572
 20
383.991720824141
 10
433.2510741104372
 20
383.695098102861
 97
        0
 75
     2
 76
     1
 98
        0
  0
SPLINE
  5
306
330
2AE
100
AcDbEntity
  8
Layer 1
370
     0
100
AcDbSpline
210
0.0
220
0.0
230
1.0
 70
    11
 71
     3
 72
    47
 73
    43
 74
     0
 42
0.0000000001
 43
0.0000000001
 12
1.0
 22
0.0
 32
0.0
 13
1.0
 23
0.0
 33
0.0
 40
0.0
 40
0.0
 40
0.0
 40
0.0
 40
1.0
 40
1.0
 40
1.0
 40
2.0
 40
2.0
 40
2.0
 40
3.0
 40
3.0
 40
3.0
 40
4.0
 40
4.0
 40
4.0
 40
5.0
 40
5.0
 40
5.0
 40
6.0
 40
6.0
 40
6.0
 40
7.0
 40
7.0
 40
7.0
 40
8.0
 40
8.0
 40
8.0
 40
9.0
 40
9.0
 40
9.0
 40
10.0
 40
10.0
 40
10.0
 40
11.0
 40
11.0
 40
11.0
 40
12.0
 40
12.0
 40
12.0
 40
13.0
 40
13.0
 40
13.0
 40
14.0
 40
14.0
 40
14.0
 40
14.0
 10
436.9256129550047
 20
382.6960204121385
 30
0.0
 10
436.9256129550047
 20
382.6960204121385
 30
0.0
 10
436.9256129550047
 20
379.8679415282969
 30
0.0
 10
436.9256129550047
 20
379.8679415282969
 30
0.0
 10
436.9256129550047
 20
379.8679415282969
 30
0.0
 10
436.3158310541155
 20
379.8679415282969
 30
0.0
 10
436.3158310541155
 20
379.8679415282969
 30
0.0
 10
436.3158310541155
 20
379.8679415282969
 30
0.0
 10
436.3158310541155
 20
380.2658500568432
 30
0.0
 10
436.3158310541155
 20
380.2658500568432
 30
0.0
 10
435.9857909066286
 20
379.9358099093564
 30
0.0
 10
435.6722872174709
 20
379.8172986246637
 30
0.0
 10
435.1134927297633
 20
379.8172986246637
 30
0.0
 10
434.5378172741781
 20
379.8172986246637
 30
0.0
 10
434.2246580945688
 20
379.9185844319301
 30
0.0
 10
433.936648112002
 20
380.1983261853324
 30
0.0
 10
433.7247747396591
 20
380.4012423094136
 30
0.0
 10
433.6231444228442
 20
380.7147459985713
 30
0.0
 10
433.6231444228442
 20
381.0447861460582
 30
0.0
 10
433.6231444228442
 20
381.7816920703532
 30
0.0
 10
434.1399087456317
 20
382.2471244704105
 30
0.0
 10
435.0711180552947
 20
382.2471244704105
 30
0.0
 10
435.0711180552947
 20
382.2471244704105
 30
0.0
 10
436.3158310541155
 20
382.2471244704105
 30
0.0
 10
436.3158310541155
 20
382.2471244704105
 30
0.0
 10
436.3158310541155
 20
382.2471244704105
 30
0.0
 10
436.3158310541155
 20
382.6453775085054
 30
0.0
 10
436.3158310541155
 20
382.6453775085054
 30
0.0
 10
436.3158310541155
 20
383.2465466706814
 30
0.0
 10
436.019552842384
 20
383.5597058502906
 30
0.0
 10
435.2488849823336
 20
383.5597058502906
 30
0.0
 10
434.7241969399301
 20
383.5597058502906
 30
0.0
 10
434.4530679252409
 20
383.4243135977203
 30
0.0
 10
434.199164387978
 20
383.0770479728071
 30
0.0
 10
434.199164387978
 20
383.0770479728071
 30
0.0
 10
433.7840303820054
 20
383.4580755334758
 30
0.0
 10
433.7840303820054
 20
383.4580755334758
 30
0.0
 10
434.1481769747963
 20
383.9407334109593
 30
0.0
 10
434.5715792099335
 20
384.0847384022427
 30
0.0
 10
435.2574977210468
 20
384.0847384022427
 30
0.0
 10
436.3836994351749
 20
384.0847384022427
 30
0.0
 10
436.9256129550047
 20
383.5934677860461
 30
0.0
 10
436.9256129550047
 20
382.6960204121385
 30
0.0
  0
SPLINE
  5
307
330
2AE
100
AcDbEntity
  8
Layer 1
370
     0
100
AcDbSpline
210
0.0
220
0.0
230
1.0
 70
    11
 71
     3
 72
    23
 73
    19
 74
     0
 42
0.0000000001
 43
0.0000000001
 12
1.0
 22
0.0
 32
0.0
 13
1.0
 23
0.0
 33
0.0
 40
0.0
 40
0.0
 40
0.0
 40
0.0
 40
1.0
 40
1.0
 40
1.0
 40
2.0
 40
2.0
 40
2.0
 40
3.0
 40
3.0
 40
3.0
 40
4.0
 40
4.0
 40
4.0
 40
5.0
 40
5.0
 40
5.0
 40
6.0
 40
6.0
 40
6.0
 40
6.0
 10
435.1558674042319
 20
381.7899602995178
 30
0.0
 10
434.5292045354649
 20
381.7899602995178
 30
0.0
 10
434.2160453558557
 20
381.5443249914195
 30
0.0
 10
434.2160453558557
 20
381.0533988847714
 30
0.0
 10
434.2160453558557
 20
380.5707410072879
 30
0.0
 10
434.5123235675872
 20
380.3419866670673
 30
0.0
 10
435.1813611108228
 20
380.3419866670673
 30
0.0
 10
435.5286267357359
 20
380.3419866670673
 30
0.0
 10
435.833173176632
 20
380.3760931123713
 30
0.0
 10
436.1043021913212
 20
380.6213839109211
 30
0.0
 10
436.2483071826046
 20
380.7571206730399
 30
0.0
 10
436.3158310541155
 20
380.9941432424251
 30
0.0
 10
436.3158310541155
 20
381.3414088673383
 30
0.0
 10
436.3158310541155
 20
381.3414088673383
 30
0.0
 10
436.3158310541155
 20
381.7899602995178
 30
0.0
 10
436.3158310541155
 20
381.7899602995178
 30
0.0
 10
436.3158310541155
 20
381.7899602995178
 30
0.0
 10
435.1558674042319
 20
381.7899602995178
 30
0.0
 10
435.1558674042319
 20
381.7899602995178
 30
0.0
  0
HATCH
  5
308
330
2AE
100
AcDbEntity
  8
Layer 1
 62
     7
100
AcDbHatch
 10
0.0
 20
0.0
 30
0.0
210
0.0
220
0.0
230
1.0
  2
SOLID
 70
     1
 71
     0
 91
        2
 92
        1
 93
        1
 72
     4
 94
        3
 73
     0
 74
     1
 95
       47
 96
       43
 40
0.0
 40
0.0
 40
0.0
 40
0.0
 40
1.0
 40
1.0
 40
1.0
 40
2.0
 40
2.0
 40
2.0
 40
3.0
 40
3.0
 40
3.0
 40
4.0
 40
4.0
 40
4.0
 40
5.0
 40
5.0
 40
5.0
 40
6.0
 40
6.0
 40
6.0
 40
7.0
 40
7.0
 40
7.0
 40
8.0
 40
8.0
 40
8.0
 40
9.0
 40
9.0
 40
9.0
 40
10.0
 40
10.0
 40
10.0
 40
11.0
 40
11.0
 40
11.0
 40
12.0
 40
12.0
 40
12.0
 40
13.0
 40
13.0
 40
13.0
 40
14.0
 40
14.0
 40
14.0
 40
14.0
 10
436.9256129550047
 20
382.6960204121385
 10
436.9256129550047
 20
382.6960204121385
 10
436.9256129550047
 20
379.8679415282969
 10
436.9256129550047
 20
379.8679415282969
 10
436.9256129550047
 20
379.8679415282969
 10
436.3158310541155
 20
379.8679415282969
 10
436.3158310541155
 20
379.8679415282969
 10
436.3158310541155
 20
379.8679415282969
 10
436.3158310541155
 20
380.2658500568432
 10
436.3158310541155
 20
380.2658500568432
 10
435.9857909066286
 20
379.9358099093564
 10
435.6722872174709
 20
379.8172986246637
 10
435.1134927297633
 20
379.8172986246637
 10
434.5378172741781
 20
379.8172986246637
 10
434.2246580945688
 20
379.9185844319301
 10
433.936648112002
 20
380.1983261853324
 10
433.7247747396591
 20
380.4012423094136
 10
433.6231444228442
 20
380.7147459985713
 10
433.6231444228442
 20
381.0447861460582
 10
433.6231444228442
 20
381.7816920703532
 10
434.1399087456317
 20
382.2471244704105
 10
435.0711180552947
 20
382.2471244704105
 10
435.0711180552947
 20
382.2471244704105
 10
436.3158310541155
 20
382.2471244704105
 10
436.3158310541155
 20
382.2471244704105
 10
436.3158310541155
 20
382.2471244704105
 10
436.3158310541155
 20
382.6453775085054
 10
436.3158310541155
 20
382.6453775085054
 10
436.3158310541155
 20
383.2465466706814
 10
436.019552842384
 20
383.5597058502906
 10
435.2488849823336
 20
383.5597058502906
 10
434.7241969399301
 20
383.5597058502906
 10
434.4530679252409
 20
383.4243135977203
 10
434.199164387978
 20
383.0770479728071
 10
434.199164387978
 20
383.0770479728071
 10
433.7840303820054
 20
383.4580755334758
 10
433.7840303820054
 20
383.4580755334758
 10
434.1481769747963
 20
383.9407334109593
 10
434.5715792099335
 20
384.0847384022427
 10
435.2574977210468
 20
384.0847384022427
 10
436.3836994351749
 20
384.0847384022427
 10
436.9256129550047
 20
383.5934677860461
 10
436.9256129550047
 20
382.6960204121385
 97
        0
 92
        1
 93
        1
 72
     4
 94
        3
 73
     0
 74
     1
 95
       23
 96
       19
 40
0.0
 40
0.0
 40
0.0
 40
0.0
 40
1.0
 40
1.0
 40
1.0
 40
2.0
 40
2.0
 40
2.0
 40
3.0
 40
3.0
 40
3.0
 40
4.0
 40
4.0
 40
4.0
 40
5.0
 40
5.0
 40
5.0
 40
6.0
 40
6.0
 40
6.0
 40
6.0
 10
435.1558674042319
 20
381.7899602995178
 10
434.5292045354649
 20
381.7899602995178
 10
434.2160453558557
 20
381.5443249914195
 10
434.2160453558557
 20
381.0533988847714
 10
434.2160453558557
 20
380.5707410072879
 10
434.5123235675872
 20
380.3419866670673
 10
435.1813611108228
 20
380.3419866670673
 10
435.5286267357359
 20
380.3419866670673
 10
435.833173176632
 20
380.3760931123713
 10
436.1043021913212
 20
380.6213839109211
 10
436.2483071826046
 20
380.7571206730399
 10
436.3158310541155
 20
380.9941432424251
 10
436.3158310541155
 20
381.3414088673383
 10
436.3158310541155
 20
381.3414088673383
 10
436.3158310541155
 20
381.7899602995178
 10
436.3158310541155
 20
381.7899602995178
 10
436.3158310541155
 20
381.7899602995178
 10
435.1558674042319
 20
381.7899602995178
 10
435.1558674042319
 20
381.7899602995178
 97
        0
 75
     2
 76
     1
 98
        0
  0
SPLINE
  5
309
330
2AE
100
AcDbEntity
  8
Layer 1
370
     0
100
AcDbSpline
210
0.0
220
0.0
230
1.0
 70
    11
 71
     3
 72
    38
 73
    34
 74
     0
 42
0.0000000001
 43
0.0000000001
 12
1.0
 22
0.0
 32
0.0
 13
1.0
 23
0.0
 33
0.0
 40
0.0
 40
0.0
 40
0.0
 40
0.0
 40
1.0
 40
1.0
 40
1.0
 40
2.0
 40
2.0
 40
2.0
 40
3.0
 40
3.0
 40
3.0
 40
4.0
 40
4.0
 40
4.0
 40
5.0
 40
5.0
 40
5.0
 40
6.0
 40
6.0
 40
6.0
 40
7.0
 40
7.0
 40
7.0
 40
8.0
 40
8.0
 40
8.0
 40
9.0
 40
9.0
 40
9.0
 40
10.0
 40
10.0
 40
10.0
 40
11.0
 40
11.0
 40
11.0
 40
11.0
 10
441.2095891909129
 20
383.7205918094518
 30
0.0
 10
441.6247231968855
 20
383.3058023130278
 30
0.0
 10
441.7177407749872
 20
382.6198838019145
 30
0.0
 10
441.7177407749872
 20
381.950846258679
 30
0.0
 10
441.7177407749872
 20
381.282153224992
 30
0.0
 10
441.6247231968855
 20
380.6045029430433
 30
0.0
 10
441.2095891909129
 20
380.1811007079061
 30
0.0
 10
440.9894475894054
 20
379.9609591063987
 30
0.0
 10
440.625645506163
 20
379.8172986246637
 30
0.0
 10
440.1936305323127
 20
379.8172986246637
 30
0.0
 10
439.7364663614201
 20
379.8172986246637
 30
0.0
 10
439.363707029916
 20
379.9271971706432
 30
0.0
 10
439.0167859145514
 20
380.3592121444935
 30
0.0
 10
439.0167859145514
 20
380.3592121444935
 30
0.0
 10
439.0167859145514
 20
378.0051783994223
 30
0.0
 10
439.0167859145514
 20
378.0051783994223
 30
0.0
 10
439.0167859145514
 20
378.0051783994223
 30
0.0
 10
438.4070040136622
 20
378.0051783994223
 30
0.0
 10
438.4070040136622
 20
378.0051783994223
 30
0.0
 10
438.4070040136622
 20
378.0051783994223
 30
0.0
 10
438.4070040136622
 20
384.033750989061
 30
0.0
 10
438.4070040136622
 20
384.033750989061
 30
0.0
 10
438.4070040136622
 20
384.033750989061
 30
0.0
 10
439.0167859145514
 20
384.033750989061
 30
0.0
 10
439.0167859145514
 20
384.033750989061
 30
0.0
 10
439.0167859145514
 20
384.033750989061
 30
0.0
 10
439.0167859145514
 20
383.5428248824129
 30
0.0
 10
439.0167859145514
 20
383.5428248824129
 30
0.0
 10
439.363707029916
 20
383.9744953467147
 30
0.0
 10
439.727853622707
 20
384.0847384022427
 30
0.0
 10
440.1936305323127
 20
384.0847384022427
 30
0.0
 10
440.625645506163
 20
384.0847384022427
 30
0.0
 10
440.9894475894054
 20
383.9407334109593
 30
0.0
 10
441.2095891909129
 20
383.7205918094518
 30
0.0
  0
SPLINE
  5
30A
330
2AE
100
AcDbEntity
  8
Layer 1
370
     0
100
AcDbSpline
210
0.0
220
0.0
230
1.0
 70
    11
 71
     3
 72
    17
 73
    13
 74
     0
 42
0.0000000001
 43
0.0000000001
 12
1.0
 22
0.0
 32
0.0
 13
1.0
 23
0.0
 33
0.0
 40
0.0
 40
0.0
 40
0.0
 40
0.0
 40
1.0
 40
1.0
 40
1.0
 40
2.0
 40
2.0
 40
2.0
 40
3.0
 40
3.0
 40
3.0
 40
4.0
 40
4.0
 40
4.0
 40
4.0
 10
439.0167859145514
 20
381.950846258679
 30
0.0
 10
439.0167859145514
 20
381.1381482337085
 30
0.0
 10
439.1521781671217
 20
380.3592121444935
 30
0.0
 10
440.066506508907
 20
380.3592121444935
 30
0.0
 10
440.9725666215277
 20
380.3592121444935
 30
0.0
 10
441.107958874098
 20
381.1381482337085
 30
0.0
 10
441.107958874098
 20
381.950846258679
 30
0.0
 10
441.107958874098
 20
382.7638887931979
 30
0.0
 10
440.9725666215277
 20
383.5428248824129
 30
0.0
 10
440.066506508907
 20
383.5428248824129
 30
0.0
 10
439.1521781671217
 20
383.5428248824129
 30
0.0
 10
439.0167859145514
 20
382.7638887931979
 30
0.0
 10
439.0167859145514
 20
381.950846258679
 30
0.0
  0
HATCH
  5
30B
330
2AE
100
AcDbEntity
  8
Layer 1
 62
     7
100
AcDbHatch
 10
0.0
 20
0.0
 30
0.0
210
0.0
220
0.0
230
1.0
  2
SOLID
 70
     1
 71
     0
 91
        2
 92
        1
 93
        1
 72
     4
 94
        3
 73
     0
 74
     1
 95
       38
 96
       34
 40
0.0
 40
0.0
 40
0.0
 40
0.0
 40
1.0
 40
1.0
 40
1.0
 40
2.0
 40
2.0
 40
2.0
 40
3.0
 40
3.0
 40
3.0
 40
4.0
 40
4.0
 40
4.0
 40
5.0
 40
5.0
 40
5.0
 40
6.0
 40
6.0
 40
6.0
 40
7.0
 40
7.0
 40
7.0
 40
8.0
 40
8.0
 40
8.0
 40
9.0
 40
9.0
 40
9.0
 40
10.0
 40
10.0
 40
10.0
 40
11.0
 40
11.0
 40
11.0
 40
11.0
 10
441.2095891909129
 20
383.7205918094518
 10
441.6247231968855
 20
383.3058023130278
 10
441.7177407749872
 20
382.6198838019145
 10
441.7177407749872
 20
381.950846258679
 10
441.7177407749872
 20
381.282153224992
 10
441.6247231968855
 20
380.6045029430433
 10
441.2095891909129
 20
380.1811007079061
 10
440.9894475894054
 20
379.9609591063987
 10
440.625645506163
 20
379.8172986246637
 10
440.1936305323127
 20
379.8172986246637
 10
439.7364663614201
 20
379.8172986246637
 10
439.363707029916
 20
379.9271971706432
 10
439.0167859145514
 20
380.3592121444935
 10
439.0167859145514
 20
380.3592121444935
 10
439.0167859145514
 20
378.0051783994223
 10
439.0167859145514
 20
378.0051783994223
 10
439.0167859145514
 20
378.0051783994223
 10
438.4070040136622
 20
378.0051783994223
 10
438.4070040136622
 20
378.0051783994223
 10
438.4070040136622
 20
378.0051783994223
 10
438.4070040136622
 20
384.033750989061
 10
438.4070040136622
 20
384.033750989061
 10
438.4070040136622
 20
384.033750989061
 10
439.0167859145514
 20
384.033750989061
 10
439.0167859145514
 20
384.033750989061
 10
439.0167859145514
 20
384.033750989061
 10
439.0167859145514
 20
383.5428248824129
 10
439.0167859145514
 20
383.5428248824129
 10
439.363707029916
 20
383.9744953467147
 10
439.727853622707
 20
384.0847384022427
 10
440.1936305323127
 20
384.0847384022427
 10
440.625645506163
 20
384.0847384022427
 10
440.9894475894054
 20
383.9407334109593
 10
441.2095891909129
 20
383.7205918094518
 97
        0
 92
        1
 93
        1
 72
     4
 94
        3
 73
     0
 74
     1
 95
       17
 96
       13
 40
0.0
 40
0.0
 40
0.0
 40
0.0
 40
1.0
 40
1.0
 40
1.0
 40
2.0
 40
2.0
 40
2.0
 40
3.0
 40
3.0
 40
3.0
 40
4.0
 40
4.0
 40
4.0
 40
4.0
 10
439.0167859145514
 20
381.950846258679
 10
439.0167859145514
 20
381.1381482337085
 10
439.1521781671217
 20
380.3592121444935
 10
440.066506508907
 20
380.3592121444935
 10
440.9725666215277
 20
380.3592121444935
 10
441.107958874098
 20
381.1381482337085
 10
441.107958874098
 20
381.950846258679
 10
441.107958874098
 20
382.7638887931979
 10
440.9725666215277
 20
383.5428248824129
 10
440.066506508907
 20
383.5428248824129
 10
439.1521781671217
 20
383.5428248824129
 10
439.0167859145514
 20
382.7638887931979
 10
439.0167859145514
 20
381.950846258679
 97
        0
 75
     2
 76
     1
 98
        0
  0
SPLINE
  5
30C
330
2AE
100
AcDbEntity
  8
Layer 1
370
     0
100
AcDbSpline
210
0.0
220
0.0
230
1.0
 70
    11
 71
     3
 72
    53
 73
    49
 74
     0
 42
0.0000000001
 43
0.0000000001
 12
1.0
 22
0.0
 32
0.0
 13
1.0
 23
0.0
 33
0.0
 40
0.0
 40
0.0
 40
0.0
 40
0.0
 40
1.0
 40
1.0
 40
1.0
 40
2.0
 40
2.0
 40
2.0
 40
3.0
 40
3.0
 40
3.0
 40
4.0
 40
4.0
 40
4.0
 40
5.0
 40
5.0
 40
5.0
 40
6.0
 40
6.0
 40
6.0
 40
7.0
 40
7.0
 40
7.0
 40
8.0
 40
8.0
 40
8.0
 40
9.0
 40
9.0
 40
9.0
 40
10.0
 40
10.0
 40
10.0
 40
11.0
 40
11.0
 40
11.0
 40
12.0
 40
12.0
 40
12.0
 40
13.0
 40
13.0
 40
13.0
 40
14.0
 40
14.0
 40
14.0
 40
15.0
 40
15.0
 40
15.0
 40
16.0
 40
16.0
 40
16.0
 40
16.0
 10
445.8411755612828
 20
383.6358424605147
 30
0.0
 10
445.8411755612828
 20
383.6358424605147
 30
0.0
 10
445.4429225231879
 20
383.2379339319683
 30
0.0
 10
445.4429225231879
 20
383.2379339319683
 30
0.0
 10
445.1466443114564
 20
383.4666882721889
 30
0.0
 10
444.7656167507878
 20
383.5683185890038
 30
0.0
 10
444.333946286486
 20
383.5683185890038
 30
0.0
 10
443.7241643855967
 20
383.5683185890038
 30
0.0
 10
443.4023924672744
 20
383.3140705421923
 30
0.0
 10
443.4023924672744
 20
382.8824000778905
 30
0.0
 10
443.4023924672744
 20
382.5096407463865
 30
0.0
 10
443.631146807495
 20
382.323605590183
 30
0.0
 10
444.147566620734
 20
382.2726181770013
 30
0.0
 10
444.147566620734
 20
382.2726181770013
 30
0.0
 10
444.7993786865432
 20
382.213362534655
 30
0.0
 10
444.7993786865432
 20
382.213362534655
 30
0.0
 10
445.527671872125
 20
382.1458386631441
 30
0.0
 10
446.0272107174863
 20
381.8747096484549
 30
0.0
 10
446.0272107174863
 20
381.0871608205268
 30
0.0
 10
446.0272107174863
 20
380.282731024721
 30
0.0
 10
445.3499049450862
 20
379.8172986246637
 30
0.0
 10
444.333946286486
 20
379.8172986246637
 30
0.0
 10
443.6225340687819
 20
379.8172986246637
 30
0.0
 10
443.0723523197875
 20
379.9781845838249
 30
0.0
 10
442.6234563780594
 20
380.4184677868399
 30
0.0
 10
442.6234563780594
 20
380.4184677868399
 30
0.0
 10
443.0299776453189
 20
380.8246445445508
 30
0.0
 10
443.0299776453189
 20
380.8246445445508
 30
0.0
 10
443.3517495636412
 20
380.4859916583508
 30
0.0
 10
443.8089137345339
 20
380.3419866670673
 30
0.0
 10
444.3253335477729
 20
380.3419866670673
 30
0.0
 10
445.0195202880507
 20
380.3419866670673
 30
0.0
 10
445.4346542940233
 20
380.5876219751656
 30
0.0
 10
445.4346542940233
 20
381.0788925913623
 30
0.0
 10
445.4346542940233
 20
381.4513074133177
 30
0.0
 10
445.2313936603936
 20
381.6459553082344
 30
0.0
 10
444.7401230441969
 20
381.688329982703
 30
0.0
 10
444.7401230441969
 20
381.688329982703
 30
0.0
 10
444.0545490426322
 20
381.7475856250492
 30
0.0
 10
444.0545490426322
 20
381.7475856250492
 30
0.0
 10
443.2415065081133
 20
381.8154540061087
 30
0.0
 10
442.8098360438115
 20
382.1709878601864
 30
0.0
 10
442.8098360438115
 20
382.8655191100128
 30
0.0
 10
442.8098360438115
 20
383.6275742313501
 30
0.0
 10
443.444767141743
 20
384.0847384022427
 30
0.0
 10
444.3422145156506
 20
384.0847384022427
 30
0.0
 10
444.9433836778267
 20
384.0847384022427
 30
0.0
 10
445.4601480006141
 20
383.9407334109593
 30
0.0
 10
445.8411755612828
 20
383.6358424605147
 30
0.0
  0
HATCH
  5
30D
330
2AE
100
AcDbEntity
  8
Layer 1
 62
     7
100
AcDbHatch
 10
0.0
 20
0.0
 30
0.0
210
0.0
220
0.0
230
1.0
  2
SOLID
 70
     1
 71
     0
 91
        1
 92
        1
 93
        1
 72
     4
 94
        3
 73
     0
 74
     1
 95
       53
 96
       49
 40
0.0
 40
0.0
 40
0.0
 40
0.0
 40
1.0
 40
1.0
 40
1.0
 40
2.0
 40
2.0
 40
2.0
 40
3.0
 40
3.0
 40
3.0
 40
4.0
 40
4.0
 40
4.0
 40
5.0
 40
5.0
 40
5.0
 40
6.0
 40
6.0
 40
6.0
 40
7.0
 40
7.0
 40
7.0
 40
8.0
 40
8.0
 40
8.0
 40
9.0
 40
9.0
 40
9.0
 40
10.0
 40
10.0
 40
10.0
 40
11.0
 40
11.0
 40
11.0
 40
12.0
 40
12.0
 40
12.0
 40
13.0
 40
13.0
 40
13.0
 40
14.0
 40
14.0
 40
14.0
 40
15.0
 40
15.0
 40
15.0
 40
16.0
 40
16.0
 40
16.0
 40
16.0
 10
445.8411755612828
 20
383.6358424605147
 10
445.8411755612828
 20
383.6358424605147
 10
445.4429225231879
 20
383.2379339319683
 10
445.4429225231879
 20
383.2379339319683
 10
445.1466443114564
 20
383.4666882721889
 10
444.7656167507878
 20
383.5683185890038
 10
444.333946286486
 20
383.5683185890038
 10
443.7241643855967
 20
383.5683185890038
 10
443.4023924672744
 20
383.3140705421923
 10
443.4023924672744
 20
382.8824000778905
 10
443.4023924672744
 20
382.5096407463865
 10
443.631146807495
 20
382.323605590183
 10
444.147566620734
 20
382.2726181770013
 10
444.147566620734
 20
382.2726181770013
 10
444.7993786865432
 20
382.213362534655
 10
444.7993786865432
 20
382.213362534655
 10
445.527671872125
 20
382.1458386631441
 10
446.0272107174863
 20
381.8747096484549
 10
446.0272107174863
 20
381.0871608205268
 10
446.0272107174863
 20
380.282731024721
 10
445.3499049450862
 20
379.8172986246637
 10
444.333946286486
 20
379.8172986246637
 10
443.6225340687819
 20
379.8172986246637
 10
443.0723523197875
 20
379.9781845838249
 10
442.6234563780594
 20
380.4184677868399
 10
442.6234563780594
 20
380.4184677868399
 10
443.0299776453189
 20
380.8246445445508
 10
443.0299776453189
 20
380.8246445445508
 10
443.3517495636412
 20
380.4859916583508
 10
443.8089137345339
 20
380.3419866670673
 10
444.3253335477729
 20
380.3419866670673
 10
445.0195202880507
 20
380.3419866670673
 10
445.4346542940233
 20
380.5876219751656
 10
445.4346542940233
 20
381.0788925913623
 10
445.4346542940233
 20
381.4513074133177
 10
445.2313936603936
 20
381.6459553082344
 10
444.7401230441969
 20
381.688329982703
 10
444.7401230441969
 20
381.688329982703
 10
444.0545490426322
 20
381.7475856250492
 10
444.0545490426322
 20
381.7475856250492
 10
443.2415065081133
 20
381.8154540061087
 10
442.8098360438115
 20
382.1709878601864
 10
442.8098360438115
 20
382.8655191100128
 10
442.8098360438115
 20
383.6275742313501
 10
443.444767141743
 20
384.0847384022427
 10
444.3422145156506
 20
384.0847384022427
 10
444.9433836778267
 20
384.0847384022427
 10
445.4601480006141
 20
383.9407334109593
 10
445.8411755612828
 20
383.6358424605147
 97
        0
 75
     2
 76
     1
 98
        0
  0
ENDBLK
  5
2B1
330
2AE
100
AcDbEntity
  8
0
100
AcDbBlockEnd
  0
ENDSEC
  0
SECTION
  2
ENTITIES
  0
INSERT
  5
42
330
1F
100
AcDbEntity
  8
Layer 1
100
AcDbBlockReference
  2
block 2
 10
0.0
 20
0.0
 30
0.0
  0
INSERT
  5
84
330
1F
100
AcDbEntity
  8
Layer 1
100
AcDbBlockReference
  2
block 3
 10
0.0
 20
0.0
 30
0.0
  0
INSERT
  5
C3
330
1F
100
AcDbEntity
  8
Layer 1
100
AcDbBlockReference
  2
block 4
 10
0.0
 20
0.0
 30
0.0
  0
INSERT
  5
EC
330
1F
100
AcDbEntity
  8
Layer 1
100
AcDbBlockReference
  2
block 5
 10
0.0
 20
0.0
 30
0.0
  0
INSERT
  5
F8
330
1F
100
AcDbEntity
  8
Layer 1
100
AcDbBlockReference
  2
block 6
 10
0.0
 20
0.0
 30
0.0
  0
POLYLINE
  5
19A
330
1F
100
AcDbEntity
  8
Layer 1
 62
    40
370
    13
100
AcDb2dPolyline
 66
     1
 10
0.0
 20
0.0
 30
0.0
  0
VERTEX
  5
19B
330
19A
100
AcDbEntity
  8
Layer 1
 62
    40
370
    13
100
AcDbVertex
100
AcDb2dVertex
 10
68.8545901220312
 20
647.6936329616411
 30
0.0
  0
VERTEX
  5
19C
330
19A
100
AcDbEntity
  8
Layer 1
 62
    40
370
    13
100
AcDbVertex
100
AcDb2dVertex
 10
18.85469202933369
 20
647.6936329616411
 30
0.0
  0
VERTEX
  5
19D
330
19A
100
AcDbEntity
  8
Layer 1
 62
    40
370
    13
100
AcDbVertex
100
AcDb2dVertex
 10
18.85469202933369
 20
652.6935861667714
 30
0.0
  0
VERTEX
  5
19E
330
19A
100
AcDbEntity
  8
Layer 1
 62
    40
370
    13
100
AcDbVertex
100
AcDb2dVertex
 10
68.8545901220312
 20
652.6935861667714
 30
0.0
  0
VERTEX
  5
19F
330
19A
100
AcDbEntity
  8
Layer 1
 62
    40
370
    13
100
AcDbVertex
100
AcDb2dVertex
 10
68.8545901220312
 20
647.6936329616411
 30
0.0
  0
SEQEND
  5
1A0
330
19A
100
AcDbEntity
  8
Layer 1
 62
    40
370
    13
  0
POLYLINE
  5
1A1
330
1F
100
AcDbEntity
  8
Layer 1
 62
    40
370
    13
100
AcDb2dPolyline
 66
     1
 10
0.0
 20
0.0
 30
0.0
  0
VERTEX
  5
1A2
330
1A1
100
AcDbEntity
  8
Layer 1
 62
    40
370
    13
100
AcDbVertex
100
AcDb2dVertex
 10
147.1995926794849
 20
274.8903118946312
 30
0.0
  0
VERTEX
  5
1A3
330
1A1
100
AcDbEntity
  8
Layer 1
 62
    40
370
    13
100
AcDbVertex
100
AcDb2dVertex
 10
142.1996394743547
 20
274.8903118946312
 30
0.0
  0
VERTEX
  5
1A4
330
1A1
100
AcDbEntity
  8
Layer 1
 62
    40
370
    13
100
AcDbVertex
100
AcDb2dVertex
 10
142.1996394743547
 20
589.8901844897639
 30
0.0
  0
VERTEX
  5
1A5
330
1A1
100
AcDbEntity
  8
Layer 1
 62
    40
370
    13
100
AcDbVertex
100
AcDb2dVertex
 10
147.1995926794849
 20
589.8901844897639
 30
0.0
  0
VERTEX
  5
1A6
330
1A1
100
AcDbEntity
  8
Layer 1
 62
    40
370
    13
100
AcDbVertex
100
AcDb2dVertex
 10
147.1995926794849
 20
274.8903118946312
 30
0.0
  0
SEQEND
  5
1A7
330
1A1
100
AcDbEntity
  8
Layer 1
 62
    40
370
    13
  0
INSERT
  5
1A9
330
1F
100
AcDbEntity
  8
Layer 1
100
AcDbBlockReference
  2
block 7
 10
0.0
 20
0.0
 30
0.0
  0
INSERT
  5
29D
330
1F
100
AcDbEntity
  8
Layer 1
100
AcDbBlockReference
  2
block 8
 10
0.0
 20
0.0
 30
0.0
  0
ENDSEC
  0
SECTION
  2
OBJECTS
  0
DICTIONARY
  5
C
330
0
100
AcDbDictionary
281
     1
  3
ACAD_GROUP
350
D
  3
ACAD_LAYOUT
350
1A
  3
ACAD_MATERIAL
350
3B
  3
ACAD_MLEADERSTYLE
350
310
  3
ACAD_MLINESTYLE
350
17
  3
ACAD_PLOTSETTINGS
350
19
  3
ACAD_PLOTSTYLENAME
350
E
  3
ACAD_VISUALSTYLE
350
2A
  3
AcDbVariableDictionary
350
30E
  0
DICTIONARY
  5
D
102
{ACAD_REACTORS
330
C
102
}
330
C
100
AcDbDictionary
281
     1
  0
DICTIONARY
  5
1A
102
{ACAD_REACTORS
330
C
102
}
330
C
100
AcDbDictionary
281
     1
  3
Layout1
350
1E
  3
Layout2
350
26
  3
Model
350
22
  0
DICTIONARY
  5
3B
102
{ACAD_REACTORS
330
C
102
}
330
C
100
AcDbDictionary
281
     1
  3
ByBlock
350
3D
  3
ByLayer
350
3C
  3
Global
350
3E
  0
DICTIONARY
  5
310
102
{ACAD_REACTORS
330
C
102
}
330
C
100
AcDbDictionary
281
     1
  0
DICTIONARY
  5
17
102
{ACAD_REACTORS
330
C
102
}
330
C
100
AcDbDictionary
281
     1
  3
Standard
350
18
  0
DICTIONARY
  5
19
102
{ACAD_REACTORS
330
C
102
}
330
C
100
AcDbDictionary
281
     1
  0
ACDBDICTIONARYWDFLT
  5
E
102
{ACAD_REACTORS
330
C
102
}
330
C
100
AcDbDictionary
281
     1
  3
Normal
350
F
100
AcDbDictionaryWithDefault
340
F
  0
DICTIONARY
  5
2A
102
{ACAD_REACTORS
330
C
102
}
330
C
100
AcDbDictionary
281
     1
  3
2dWireframe
350
2F
  3
3D Hidden
350
31
  3
3dWireframe
350
30
  3
Basic
350
32
  3
Brighten
350
36
  3
ColorChange
350
3A
  3
Conceptual
350
34
  3
Dim
350
35
  3
Facepattern
350
39
  3
Flat
350
2B
  3
FlatWithEdges
350
2C
  3
Gouraud
350
2D
  3
GouraudWithEdges
350
2E
  3
Linepattern
350
38
  3
Realistic
350
33
  3
Thicken
350
37
  0
DICTIONARY
  5
30E
102
{ACAD_REACTORS
330
C
102
}
330
C
100
AcDbDictionary
281
     1
  3
DIMASSOC
350
311
  3
HIDETEXT
350
312
  0
LAYOUT
  5
1E
102
{ACAD_REACTORS
330
1A
102
}
330
1A
100
AcDbPlotSettings
  1

  2
none_device
  4

  6

 40
0.0
 41
0.0
 42
0.0
 43
0.0
 44
0.0
 45
0.0
 46
0.0
 47
0.0
 48
0.0
 49
0.0
140
0.0
141
0.0
142
1.0
143
1.0
 70
   688
 72
     0
 73
     0
 74
     5
  7

 75
    16
147
1.0
148
0.0
149
0.0
100
AcDbLayout
  1
Layout1
 70
     1
 71
     1
 10
0.0
 20
0.0
 11
12.0
 21
9.0
 12
0.0
 22
0.0
 32
0.0
 14
1.000000000000000E+20
 24
1.000000000000000E+20
 34
1.000000000000000E+20
 15
-1.000000000000000E+20
 25
-1.000000000000000E+20
 35
-1.000000000000000E+20
146
0.0
 13
0.0
 23
0.0
 33
0.0
 16
1.0
 26
0.0
 36
0.0
 17
0.0
 27
1.0
 37
0.0
 76
     0
330
1B
  0
LAYOUT
  5
26
102
{ACAD_REACTORS
330
1A
102
}
330
1A
100
AcDbPlotSettings
  1

  2
none_device
  4

  6

 40
0.0
 41
0.0
 42
0.0
 43
0.0
 44
0.0
 45
0.0
 46
0.0
 47
0.0
 48
0.0
 49
0.0
140
0.0
141
0.0
142
1.0
143
1.0
 70
   688
 72
     0
 73
     0
 74
     5
  7

 75
    16
147
1.0
148
0.0
149
0.0
100
AcDbLayout
  1
Layout2
 70
     1
 71
     2
 10
0.0
 20
0.0
 11
0.0
 21
0.0
 12
0.0
 22
0.0
 32
0.0
 14
0.0
 24
0.0
 34
0.0
 15
0.0
 25
0.0
 35
0.0
146
0.0
 13
0.0
 23
0.0
 33
0.0
 16
1.0
 26
0.0
 36
0.0
 17
0.0
 27
1.0
 37
0.0
 76
     0
330
23
  0
LAYOUT
  5
22
102
{ACAD_REACTORS
330
1A
102
}
330
1A
100
AcDbPlotSettings
  1

  2
none_device
  4

  6

 40
0.0
 41
0.0
 42
0.0
 43
0.0
 44
0.0
 45
0.0
 46
0.0
 47
0.0
 48
0.0
 49
0.0
140
0.0
141
0.0
142
1.0
143
1.0
 70
  1712
 72
     0
 73
     0
 74
     0
  7

 75
     0
147
1.0
148
0.0
149
0.0
100
AcDbLayout
  1
Model
 70
     1
 71
     0
 10
0.0
 20
0.0
 11
12.0
 21
9.0
 12
0.0
 22
0.0
 32
0.0
 14
1.000000000000000E+20
 24
1.000000000000000E+20
 34
1.000000000000000E+20
 15
-1.000000000000000E+20
 25
-1.000000000000000E+20
 35
-1.000000000000000E+20
146
0.0
 13
0.0
 23
0.0
 33
0.0
 16
1.0
 26
0.0
 36
0.0
 17
0.0
 27
1.0
 37
0.0
 76
     0
330
1F
331
29
  0
MATERIAL
  5
3D
102
{ACAD_REACTORS
330
3B
102
}
102
{ACAD_XDICTIONARY
360
335
102
}
330
3B
100
AcDbMaterial
  1
ByBlock
  0
MATERIAL
  5
3C
102
{ACAD_REACTORS
330
3B
102
}
102
{ACAD_XDICTIONARY
360
333
102
}
330
3B
100
AcDbMaterial
  1
ByLayer
  0
MATERIAL
  5
3E
102
{ACAD_REACTORS
330
3B
102
}
102
{ACAD_XDICTIONARY
360
337
102
}
330
3B
100
AcDbMaterial
  1
Global
  0
MLINESTYLE
  5
18
102
{ACAD_REACTORS
330
17
102
}
330
17
100
AcDbMlineStyle
  2
Standard
 70
     0
  3

 62
   256
 51
90.0
 52
90.0
 71
     2
 49
0.5
 62
   256
  6
BYLAYER
 49
-0.5
 62
   256
  6
BYLAYER
  0
ACDBPLACEHOLDER
  5
F
102
{ACAD_REACTORS
330
E
102
}
330
E
  0
VISUALSTYLE
  5
2F
102
{ACAD_REACTORS
330
2A
102
}
102
{ACAD_XDICTIONARY
360
31B
102
}
330
2A
100
AcDbVisualStyle
  2
2dWireframe
 70
     4
 71
     0
 72
     2
 73
     0
 90
        0
 40
-0.6
 41
-30.0
 62
     5
 63
     7
 74
     1
 91
        4
 64
     7
 65
   257
 75
     1
175
     1
 42
1.0
 92
        0
 66
   257
 43
1.0
 76
     1
 77
     6
 78
     2
 67
     7
 79
     5
170
     0
171
     0
290
     0
174
     0
 93
        1
 44
0.0
173
     0
291
     0
 45
0.0
1001
ACAD
1000
AcDbSavedByObjectVersion
1070
     0
  0
VISUALSTYLE
  5
31
102
{ACAD_REACTORS
330
2A
102
}
102
{ACAD_XDICTIONARY
360
31F
102
}
330
2A
100
AcDbVisualStyle
  2
3D Hidden
 70
     6
 71
     1
 72
     2
 73
     2
 90
        0
 40
-0.6
 41
-30.0
 62
     5
 63
     7
 74
     2
 91
        2
 64
     7
 65
   257
 75
     2
175
     1
 42
40.0
 92
        0
 66
   257
 43
1.0
 76
     1
 77
     6
 78
     2
 67
     7
 79
     3
170
     0
171
     0
290
     0
174
     0
 93
        1
 44
0.0
173
     0
291
     0
 45
0.0
1001
ACAD
1000
AcDbSavedByObjectVersion
1070
     0
  0
VISUALSTYLE
  5
30
102
{ACAD_REACTORS
330
2A
102
}
102
{ACAD_XDICTIONARY
360
31D
102
}
330
2A
100
AcDbVisualStyle
  2
3dWireframe
 70
     5
 71
     0
 72
     2
 73
     0
 90
        0
 40
-0.6
 41
-30.0
 62
     5
 63
     7
 74
     1
 91
        4
 64
     7
 65
   257
 75
     1
175
     1
 42
1.0
 92
        0
 66
   257
 43
1.0
 76
     1
 77
     6
 78
     2
 67
     7
 79
     5
170
     0
171
     0
290
     0
174
     0
 93
        1
 44
0.0
173
     0
291
     0
 45
0.0
1001
ACAD
1000
AcDbSavedByObjectVersion
1070
     0
  0
VISUALSTYLE
  5
32
102
{ACAD_REACTORS
330
2A
102
}
102
{ACAD_XDICTIONARY
360
321
102
}
330
2A
100
AcDbVisualStyle
  2
Basic
 70
     7
 71
     1
 72
     0
 73
     1
 90
        0
 40
-0.6
 41
-30.0
 62
     5
 63
     7
 74
     0
 91
        4
 64
     7
 65
   257
 75
     1
175
     1
 42
1.0
 92
        8
 66
     7
 43
1.0
 76
     1
 77
     6
 78
     2
 67
     7
 79
     5
170
     0
171
     0
290
     0
174
     0
 93
        1
 44
0.0
173
     0
291
     1
 45
0.0
1001
ACAD
1000
AcDbSavedByObjectVersion
1070
     0
  0
VISUALSTYLE
  5
36
102
{ACAD_REACTORS
330
2A
102
}
102
{ACAD_XDICTIONARY
360
329
102
}
330
2A
100
AcDbVisualStyle
  2
Brighten
 70
    12
 71
     2
 72
     2
 73
     0
 90
        0
 40
-0.6
 41
-30.0
 62
     5
 63
     7
 74
     1
 91
        4
 64
     7
 65
   257
 75
     1
175
     1
 42
1.0
 92
        8
 66
     7
 43
1.0
 76
     1
 77
     6
 78
     2
 67
     7
 79
     5
170
     0
171
     0
290
     0
174
     0
 93
        1
 44
50.0
173
     0
291
     1
 45
0.0
1001
ACAD
1000
AcDbSavedByObjectVersion
1070
     0
  0
VISUALSTYLE
  5
3A
102
{ACAD_REACTORS
330
2A
102
}
102
{ACAD_XDICTIONARY
360
331
102
}
330
2A
100
AcDbVisualStyle
  2
ColorChange
 70
    16
 71
     2
 72
     2
 73
     3
 90
        0
 40
-0.6
 41
-30.0
 62
     5
 63
     8
 74
     1
 91
        4
 64
     7
 65
   257
 75
     1
175
     1
 42
1.0
 92
        8
 66
     8
 43
1.0
 76
     1
 77
     6
 78
     2
 67
     7
 79
     5
170
     0
171
     0
290
     0
174
     0
 93
        1
 44
0.0
173
     0
291
     1
 45
0.0
1001
ACAD
1000
AcDbSavedByObjectVersion
1070
     0
  0
VISUALSTYLE
  5
34
102
{ACAD_REACTORS
330
2A
102
}
102
{ACAD_XDICTIONARY
360
325
102
}
330
2A
100
AcDbVisualStyle
  2
Conceptual
 70
     9
 71
     3
 72
     2
 73
     0
 90
        0
 40
-0.6
 41
-30.0
 62
     5
 63
     7
 74
     2
 91
        2
 64
     7
 65
   257
 75
     1
175
     1
 42
40.0
 92
        8
 66
     7
 43
1.0
 76
     1
 77
     6
 78
     2
 67
     7
 79
     3
170
     0
171
     0
290
     0
174
     0
 93
        1
 44
0.0
173
     0
291
     0
 45
0.0
1001
ACAD
1000
AcDbSavedByObjectVersion
1070
     0
  0
VISUALSTYLE
  5
35
102
{ACAD_REACTORS
330
2A
102
}
102
{ACAD_XDICTIONARY
360
327
102
}
330
2A
100
AcDbVisualStyle
  2
Dim
 70
    11
 71
     2
 72
     2
 73
     0
 90
        0
 40
-0.6
 41
-30.0
 62
     5
 63
     7
 74
     1
 91
        4
 64
     7
 65
   257
 75
     1
175
     1
 42
1.0
 92
        8
 66
     7
 43
1.0
 76
     1
 77
     6
 78
     2
 67
     7
 79
     5
170
     0
171
     0
290
     0
174
     0
 93
        1
 44
-50.0
173
     0
291
     1
 45
0.0
1001
ACAD
1000
AcDbSavedByObjectVersion
1070
     0
  0
VISUALSTYLE
  5
39
102
{ACAD_REACTORS
330
2A
102
}
102
{ACAD_XDICTIONARY
360
32F
102
}
330
2A
100
AcDbVisualStyle
  2
Facepattern
 70
    15
 71
     2
 72
     2
 73
     0
 90
        0
 40
-0.6
 41
-30.0
 62
     5
 63
     7
 74
     1
 91
        4
 64
     7
 65
   257
 75
     1
175
     1
 42
1.0
 92
        8
 66
     7
 43
1.0
 76
     1
 77
     6
 78
     2
 67
     7
 79
     5
170
     0
171
     0
290
     0
174
     0
 93
        1
 44
0.0
173
     0
291
     1
 45
0.0
1001
ACAD
1000
AcDbSavedByObjectVersion
1070
     0
  0
VISUALSTYLE
  5
2B
102
{ACAD_REACTORS
330
2A
102
}
102
{ACAD_XDICTIONARY
360
313
102
}
330
2A
100
AcDbVisualStyle
  2
Flat
 70
     0
 71
     2
 72
     1
 73
     1
 90
        2
 40
-0.6
 41
30.0
 62
     5
 63
     7
 74
     0
 91
        4
 64
     7
 65
   257
 75
     1
175
     1
 42
1.0
 92
        8
 66
     7
 43
1.0
 76
     1
 77
     6
 78
     2
 67
     7
 79
     5
170
     0
171
     0
290
     0
174
     0
 93
       13
 44
0.0
173
     0
291
     1
 45
0.0
1001
ACAD
1000
AcDbSavedByObjectVersion
1070
     0
  0
VISUALSTYLE
  5
2C
102
{ACAD_REACTORS
330
2A
102
}
102
{ACAD_XDICTIONARY
360
315
102
}
330
2A
100
AcDbVisualStyle
  2
FlatWithEdges
 70
     1
 71
     2
 72
     1
 73
     1
 90
        2
 40
-0.6
 41
30.0
 62
     5
 63
     7
 74
     1
 91
        4
 64
     7
 65
   257
 75
     1
175
     1
 42
1.0
 92
        0
 66
   257
 43
1.0
 76
     1
 77
     6
 78
     2
 67
     7
 79
     5
170
     0
171
     0
290
     0
174
     0
 93
       13
 44
0.0
173
     0
291
     1
 45
0.0
1001
ACAD
1000
AcDbSavedByObjectVersion
1070
     0
  0
VISUALSTYLE
  5
2D
102
{ACAD_REACTORS
330
2A
102
}
102
{ACAD_XDICTIONARY
360
317
102
}
330
2A
100
AcDbVisualStyle
  2
Gouraud
 70
     2
 71
     2
 72
     2
 73
     1
 90
        2
 40
-0.6
 41
30.0
 62
     5
 63
     7
 74
     0
 91
        4
 64
     7
 65
   257
 75
     1
175
     1
 42
1.0
 92
        0
 66
     7
 43
1.0
 76
     1
 77
     6
 78
     2
 67
     7
 79
     5
170
     0
171
     0
290
     0
174
     0
 93
       13
 44
0.0
173
     0
291
     1
 45
0.0
1001
ACAD
1000
AcDbSavedByObjectVersion
1070
     0
  0
VISUALSTYLE
  5
2E
102
{ACAD_REACTORS
330
2A
102
}
102
{ACAD_XDICTIONARY
360
319
102
}
330
2A
100
AcDbVisualStyle
  2
GouraudWithEdges
 70
     3
 71
     2
 72
     2
 73
     1
 90
        2
 40
-0.6
 41
30.0
 62
     5
 63
     7
 74
     1
 91
        4
 64
     7
 65
   257
 75
     1
175
     1
 42
1.0
 92
        0
 66
   257
 43
1.0
 76
     1
 77
     6
 78
     2
 67
     7
 79
     5
170
     0
171
     0
290
     0
174
     0
 93
       13
 44
0.0
173
     0
291
     1
 45
0.0
1001
ACAD
1000
AcDbSavedByObjectVersion
1070
     0
  0
VISUALSTYLE
  5
38
102
{ACAD_REACTORS
330
2A
102
}
102
{ACAD_XDICTIONARY
360
32D
102
}
330
2A
100
AcDbVisualStyle
  2
Linepattern
 70
    14
 71
     2
 72
     2
 73
     0
 90
        0
 40
-0.6
 41
-30.0
 62
     5
 63
     7
 74
     1
 91
        4
 64
     7
 65
   257
 75
     7
175
     7
 42
1.0
 92
        8
 66
     7
 43
1.0
 76
     1
 77
     6
 78
     2
 67
     7
 79
     5
170
     0
171
     0
290
     0
174
     0
 93
        1
 44
0.0
173
     0
291
     1
 45
0.0
1001
ACAD
1000
AcDbSavedByObjectVersion
1070
     0
  0
VISUALSTYLE
  5
33
102
{ACAD_REACTORS
330
2A
102
}
102
{ACAD_XDICTIONARY
360
323
102
}
330
2A
100
AcDbVisualStyle
  2
Realistic
 70
     8
 71
     2
 72
     2
 73
     0
 90
        0
 40
-0.6
 41
-30.0
 62
     5
 63
     7
 74
     1
 91
        0
 64
     7
 65
   257
 75
     1
175
     1
 42
1.0
 92
        8
 66
     8
 43
1.0
 76
     1
 77
     6
 78
     2
 67
     7
 79
     5
170
     0
171
     0
290
     0
174
     0
 93
       13
 44
0.0
173
     0
291
     0
 45
0.0
1001
ACAD
1000
AcDbSavedByObjectVersion
1070
     0
  0
VISUALSTYLE
  5
37
102
{ACAD_REACTORS
330
2A
102
}
102
{ACAD_XDICTIONARY
360
32B
102
}
330
2A
100
AcDbVisualStyle
  2
Thicken
 70
    13
 71
     2
 72
     2
 73
     0
 90
        0
 40
-0.6
 41
-30.0
 62
     5
 63
     7
 74
     1
 91
        4
 64
     7
 65
   257
 75
     1
175
     1
 42
1.0
 92
       12
 66
     7
 43
1.0
 76
     1
 77
     6
 78
     2
 67
     7
 79
     5
170
     0
171
     0
290
     0
174
     0
 93
        1
 44
0.0
173
     0
291
     1
 45
0.0
1001
ACAD
1000
AcDbSavedByObjectVersion
1070
     0
  0
DICTIONARYVAR
  5
311
102
{ACAD_REACTORS
330
30E
102
}
330
30E
100
DictionaryVariables
280
     0
  1
2
  0
DICTIONARYVAR
  5
312
102
{ACAD_REACTORS
330
30E
102
}
330
30E
100
DictionaryVariables
280
     0
  1
1
  0
DICTIONARY
  5
335
330
3D
100
AcDbDictionary
280
     1
281
     1
  3
ACAD_XREC_ROUNDTRIP
360
336
  0
DICTIONARY
  5
333
330
3C
100
AcDbDictionary
280
     1
281
     1
  3
ACAD_XREC_ROUNDTRIP
360
334
  0
DICTIONARY
  5
337
330
3E
100
AcDbDictionary
280
     1
281
     1
  3
ACAD_XREC_ROUNDTRIP
360
338
  0
DICTIONARY
  5
31B
330
2F
100
AcDbDictionary
280
     1
281
     1
  3
ACAD_XREC_ROUNDTRIP
360
31C
  0
DICTIONARY
  5
31F
330
31
100
AcDbDictionary
280
     1
281
     1
  3
ACAD_XREC_ROUNDTRIP
360
320
  0
DICTIONARY
  5
31D
330
30
100
AcDbDictionary
280
     1
281
     1
  3
ACAD_XREC_ROUNDTRIP
360
31E
  0
DICTIONARY
  5
321
330
32
100
AcDbDictionary
280
     1
281
     1
  3
ACAD_XREC_ROUNDTRIP
360
322
  0
DICTIONARY
  5
329
330
36
100
AcDbDictionary
280
     1
281
     1
  3
ACAD_XREC_ROUNDTRIP
360
32A
  0
DICTIONARY
  5
331
330
3A
100
AcDbDictionary
280
     1
281
     1
  3
ACAD_XREC_ROUNDTRIP
360
332
  0
DICTIONARY
  5
325
330
34
100
AcDbDictionary
280
     1
281
     1
  3
ACAD_XREC_ROUNDTRIP
360
326
  0
DICTIONARY
  5
327
330
35
100
AcDbDictionary
280
     1
281
     1
  3
ACAD_XREC_ROUNDTRIP
360
328
  0
DICTIONARY
  5
32F
330
39
100
AcDbDictionary
280
     1
281
     1
  3
ACAD_XREC_ROUNDTRIP
360
330
  0
DICTIONARY
  5
313
330
2B
100
AcDbDictionary
280
     1
281
     1
  3
ACAD_XREC_ROUNDTRIP
360
314
  0
DICTIONARY
  5
315
330
2C
100
AcDbDictionary
280
     1
281
     1
  3
ACAD_XREC_ROUNDTRIP
360
316
  0
DICTIONARY
  5
317
330
2D
100
AcDbDictionary
280
     1
281
     1
  3
ACAD_XREC_ROUNDTRIP
360
318
  0
DICTIONARY
  5
319
330
2E
100
AcDbDictionary
280
     1
281
     1
  3
ACAD_XREC_ROUNDTRIP
360
31A
  0
DICTIONARY
  5
32D
330
38
100
AcDbDictionary
280
     1
281
     1
  3
ACAD_XREC_ROUNDTRIP
360
32E
  0
DICTIONARY
  5
323
330
33
100
AcDbDictionary
280
     1
281
     1
  3
ACAD_XREC_ROUNDTRIP
360
324
  0
DICTIONARY
  5
32B
330
37
100
AcDbDictionary
280
     1
281
     1
  3
ACAD_XREC_ROUNDTRIP
360
32C
  0
XRECORD
  5
336
102
{ACAD_REACTORS
330
335
102
}
330
335
100
AcDbXrecord
280
     1
102
MATERIAL
148
0.0
149
0.0
149
0.0
 93
        0
 94
      127
282
     0
 72
     1
 77
     1
171
     1
175
     1
179
     1
273
     0
  0
XRECORD
  5
334
102
{ACAD_REACTORS
330
333
102
}
330
333
100
AcDbXrecord
280
     1
102
MATERIAL
148
0.0
149
0.0
149
0.0
 93
        0
 94
      127
282
     0
 72
     1
 77
     1
171
     1
175
     1
179
     1
273
     0
  0
XRECORD
  5
338
102
{ACAD_REACTORS
330
337
102
}
330
337
100
AcDbXrecord
280
     1
102
MATERIAL
148
0.0
149
0.0
149
0.0
 93
        0
 94
      127
282
     0
 72
     1
 77
     1
171
     1
175
     1
179
     1
273
     0
  0
XRECORD
  5
31C
102
{ACAD_REACTORS
330
31B
102
}
330
31B
100
AcDbXrecord
280
     1
102
RTVSPropertyOp0
 70
     1
102
RTVSPropertyOp1
 70
     1
102
RTVSPropertyOp2
 70
     1
102
RTVSPropertyOp3
 70
     1
102
RTVSPropertyOp4
 70
     1
102
RTVSPropertyOp5
 70
     1
102
RTVSPropertyOp6
 70
     1
102
RTVSPropertyOp7
 70
     1
102
RTVSPropertyOp8
 70
     1
102
RTVSPropertyOp9
 70
     1
102
RTVSPropertyOp10
 70
     1
102
RTVSPropertyOp11
 70
     1
102
RTVSPropertyOp12
 70
     1
102
RTVSPropertyOp13
 70
     1
102
RTVSPropertyOp14
 70
     1
102
RTVSPropertyOp15
 70
     1
102
RTVSPropertyOp16
 70
     1
102
RTVSPropertyOp17
 70
     1
102
RTVSPropertyOp18
 70
     1
102
RTVSPropertyOp19
 70
     1
102
RTVSPropertyOp20
 70
     1
102
RTVSPropertyOp21
 70
     1
102
RTVSPropertyOp22
 70
     1
102
RTVSPropertyOp23
 70
     1
102
RTVSPropertyOp24
 70
     1
102
RTVSPropertyOp25
 70
     1
102
RTVSPropertyOp26
 70
     1
102
RTVSPropertyOp27
 70
     1
102
RTVSPropertyOp28
 70
     1
102
RTVSPropertyOp29
 70
     1
102
RTVSPropertyOp30
 70
     1
102
RTVSPropertyOp31
 70
     1
102
RTVSPropertyOp32
 70
     1
  0
XRECORD
  5
320
102
{ACAD_REACTORS
330
31F
102
}
330
31F
100
AcDbXrecord
280
     1
102
RTVSPropertyOp0
 70
     1
102
RTVSPropertyOp1
 70
     1
102
RTVSPropertyOp2
 70
     1
102
RTVSPropertyOp3
 70
     1
102
RTVSPropertyOp4
 70
     1
102
RTVSPropertyOp5
 70
     1
102
RTVSPropertyOp6
 70
     1
102
RTVSPropertyOp7
 70
     1
102
RTVSPropertyOp8
 70
     1
102
RTVSPropertyOp9
 70
     1
102
RTVSPropertyOp10
 70
     1
102
RTVSPropertyOp11
 70
     1
102
RTVSPropertyOp12
 70
     1
102
RTVSPropertyOp13
 70
     1
102
RTVSPropertyOp14
 70
     1
102
RTVSPropertyOp15
 70
     1
102
RTVSPropertyOp16
 70
     1
102
RTVSPropertyOp17
 70
     1
102
RTVSPropertyOp18
 70
     1
102
RTVSPropertyOp19
 70
     1
102
RTVSPropertyOp20
 70
     1
102
RTVSPropertyOp21
 70
     1
102
RTVSPropertyOp22
 70
     1
102
RTVSPropertyOp23
 70
     1
102
RTVSPropertyOp24
 70
     1
102
RTVSPropertyOp25
 70
     1
102
RTVSPropertyOp26
 70
     1
102
RTVSPropertyOp27
 70
     1
102
RTVSPropertyOp28
 70
     1
102
RTVSPropertyOp29
 70
     1
102
RTVSPropertyOp30
 70
     1
102
RTVSPropertyOp31
 70
     1
102
RTVSPropertyOp32
 70
     1
  0
XRECORD
  5
31E
102
{ACAD_REACTORS
330
31D
102
}
330
31D
100
AcDbXrecord
280
     1
102
RTVSPropertyOp0
 70
     1
102
RTVSPropertyOp1
 70
     1
102
RTVSPropertyOp2
 70
     1
102
RTVSPropertyOp3
 70
     1
102
RTVSPropertyOp4
 70
     1
102
RTVSPropertyOp5
 70
     1
102
RTVSPropertyOp6
 70
     1
102
RTVSPropertyOp7
 70
     1
102
RTVSPropertyOp8
 70
     1
102
RTVSPropertyOp9
 70
     1
102
RTVSPropertyOp10
 70
     1
102
RTVSPropertyOp11
 70
     1
102
RTVSPropertyOp12
 70
     1
102
RTVSPropertyOp13
 70
     1
102
RTVSPropertyOp14
 70
     1
102
RTVSPropertyOp15
 70
     1
102
RTVSPropertyOp16
 70
     1
102
RTVSPropertyOp17
 70
     1
102
RTVSPropertyOp18
 70
     1
102
RTVSPropertyOp19
 70
     1
102
RTVSPropertyOp20
 70
     1
102
RTVSPropertyOp21
 70
     1
102
RTVSPropertyOp22
 70
     1
102
RTVSPropertyOp23
 70
     1
102
RTVSPropertyOp24
 70
     1
102
RTVSPropertyOp25
 70
     1
102
RTVSPropertyOp26
 70
     1
102
RTVSPropertyOp27
 70
     1
102
RTVSPropertyOp28
 70
     1
102
RTVSPropertyOp29
 70
     1
102
RTVSPropertyOp30
 70
     1
102
RTVSPropertyOp31
 70
     1
102
RTVSPropertyOp32
 70
     1
  0
XRECORD
  5
322
102
{ACAD_REACTORS
330
321
102
}
330
321
100
AcDbXrecord
280
     1
102
RTVSPropertyOp0
 70
     1
102
RTVSPropertyOp1
 70
     1
102
RTVSPropertyOp2
 70
     1
102
RTVSPropertyOp3
 70
     1
102
RTVSPropertyOp4
 70
     1
102
RTVSPropertyOp5
 70
     1
102
RTVSPropertyOp6
 70
     1
102
RTVSPropertyOp7
 70
     1
102
RTVSPropertyOp8
 70
     1
102
RTVSPropertyOp9
 70
     1
102
RTVSPropertyOp10
 70
     1
102
RTVSPropertyOp11
 70
     1
102
RTVSPropertyOp12
 70
     1
102
RTVSPropertyOp13
 70
     1
102
RTVSPropertyOp14
 70
     1
102
RTVSPropertyOp15
 70
     1
102
RTVSPropertyOp16
 70
     1
102
RTVSPropertyOp17
 70
     1
102
RTVSPropertyOp18
 70
     1
102
RTVSPropertyOp19
 70
     1
102
RTVSPropertyOp20
 70
     1
102
RTVSPropertyOp21
 70
     1
102
RTVSPropertyOp22
 70
     1
102
RTVSPropertyOp23
 70
     1
102
RTVSPropertyOp24
 70
     1
102
RTVSPropertyOp25
 70
     1
102
RTVSPropertyOp26
 70
     1
102
RTVSPropertyOp27
 70
     1
102
RTVSPropertyOp28
 70
     1
102
RTVSPropertyOp29
 70
     1
102
RTVSPropertyOp30
 70
     1
102
RTVSPropertyOp31
 70
     1
102
RTVSPropertyOp32
 70
     1
  0
XRECORD
  5
32A
102
{ACAD_REACTORS
330
329
102
}
330
329
100
AcDbXrecord
280
     1
102
RTVSPropertyOp0
 70
     1
102
RTVSPropertyOp1
 70
     1
102
RTVSPropertyOp2
 70
     1
102
RTVSPropertyOp3
 70
     1
102
RTVSPropertyOp4
 70
     1
102
RTVSPropertyOp5
 70
     1
102
RTVSPropertyOp6
 70
     1
102
RTVSPropertyOp7
 70
     1
102
RTVSPropertyOp8
 70
     1
102
RTVSPropertyOp9
 70
     1
102
RTVSPropertyOp10
 70
     1
102
RTVSPropertyOp11
 70
     1
102
RTVSPropertyOp12
 70
     1
102
RTVSPropertyOp13
 70
     1
102
RTVSPropertyOp14
 70
     1
102
RTVSPropertyOp15
 70
     1
102
RTVSPropertyOp16
 70
     1
102
RTVSPropertyOp17
 70
     1
102
RTVSPropertyOp18
 70
     1
102
RTVSPropertyOp19
 70
     1
102
RTVSPropertyOp20
 70
     1
102
RTVSPropertyOp21
 70
     1
102
RTVSPropertyOp22
 70
     1
102
RTVSPropertyOp23
 70
     1
102
RTVSPropertyOp24
 70
     1
102
RTVSPropertyOp25
 70
     1
102
RTVSPropertyOp26
 70
     1
102
RTVSPropertyOp27
 70
     1
102
RTVSPropertyOp28
 70
     1
102
RTVSPropertyOp29
 70
     1
102
RTVSPropertyOp30
 70
     1
102
RTVSPropertyOp31
 70
     1
102
RTVSPropertyOp32
 70
     1
  0
XRECORD
  5
332
102
{ACAD_REACTORS
330
331
102
}
330
331
100
AcDbXrecord
280
     1
102
RTVSPropertyOp0
 70
     1
102
RTVSPropertyOp1
 70
     1
102
RTVSPropertyOp2
 70
     1
102
RTVSPropertyOp3
 70
     1
102
RTVSPropertyOp4
 70
     1
102
RTVSPropertyOp5
 70
     1
102
RTVSPropertyOp6
 70
     1
102
RTVSPropertyOp7
 70
     1
102
RTVSPropertyOp8
 70
     1
102
RTVSPropertyOp9
 70
     1
102
RTVSPropertyOp10
 70
     1
102
RTVSPropertyOp11
 70
     1
102
RTVSPropertyOp12
 70
     1
102
RTVSPropertyOp13
 70
     1
102
RTVSPropertyOp14
 70
     1
102
RTVSPropertyOp15
 70
     1
102
RTVSPropertyOp16
 70
     1
102
RTVSPropertyOp17
 70
     1
102
RTVSPropertyOp18
 70
     1
102
RTVSPropertyOp19
 70
     1
102
RTVSPropertyOp20
 70
     1
102
RTVSPropertyOp21
 70
     1
102
RTVSPropertyOp22
 70
     1
102
RTVSPropertyOp23
 70
     1
102
RTVSPropertyOp24
 70
     1
102
RTVSPropertyOp25
 70
     1
102
RTVSPropertyOp26
 70
     1
102
RTVSPropertyOp27
 70
     1
102
RTVSPropertyOp28
 70
     1
102
RTVSPropertyOp29
 70
     1
102
RTVSPropertyOp30
 70
     1
102
RTVSPropertyOp31
 70
     1
102
RTVSPropertyOp32
 70
     1
  0
XRECORD
  5
326
102
{ACAD_REACTORS
330
325
102
}
330
325
100
AcDbXrecord
280
     1
102
RTVSPropertyOp0
 70
     1
102
RTVSPropertyOp1
 70
     1
102
RTVSPropertyOp2
 70
     1
102
RTVSPropertyOp3
 70
     1
102
RTVSPropertyOp4
 70
     1
102
RTVSPropertyOp5
 70
     1
102
RTVSPropertyOp6
 70
     1
102
RTVSPropertyOp7
 70
     1
102
RTVSPropertyOp8
 70
     1
102
RTVSPropertyOp9
 70
     1
102
RTVSPropertyOp10
 70
     1
102
RTVSPropertyOp11
 70
     1
102
RTVSPropertyOp12
 70
     1
102
RTVSPropertyOp13
 70
     1
102
RTVSPropertyOp14
 70
     1
102
RTVSPropertyOp15
 70
     1
102
RTVSPropertyOp16
 70
     1
102
RTVSPropertyOp17
 70
     1
102
RTVSPropertyOp18
 70
     1
102
RTVSPropertyOp19
 70
     1
102
RTVSPropertyOp20
 70
     1
102
RTVSPropertyOp21
 70
     1
102
RTVSPropertyOp22
 70
     1
102
RTVSPropertyOp23
 70
     1
102
RTVSPropertyOp24
 70
     1
102
RTVSPropertyOp25
 70
     1
102
RTVSPropertyOp26
 70
     1
102
RTVSPropertyOp27
 70
     1
102
RTVSPropertyOp28
 70
     1
102
RTVSPropertyOp29
 70
     1
102
RTVSPropertyOp30
 70
     1
102
RTVSPropertyOp31
 70
     1
102
RTVSPropertyOp32
 70
     1
  0
XRECORD
  5
328
102
{ACAD_REACTORS
330
327
102
}
330
327
100
AcDbXrecord
280
     1
102
RTVSPropertyOp0
 70
     1
102
RTVSPropertyOp1
 70
     1
102
RTVSPropertyOp2
 70
     1
102
RTVSPropertyOp3
 70
     1
102
RTVSPropertyOp4
 70
     1
102
RTVSPropertyOp5
 70
     1
102
RTVSPropertyOp6
 70
     1
102
RTVSPropertyOp7
 70
     1
102
RTVSPropertyOp8
 70
     1
102
RTVSPropertyOp9
 70
     1
102
RTVSPropertyOp10
 70
     1
102
RTVSPropertyOp11
 70
     1
102
RTVSPropertyOp12
 70
     1
102
RTVSPropertyOp13
 70
     1
102
RTVSPropertyOp14
 70
     1
102
RTVSPropertyOp15
 70
     1
102
RTVSPropertyOp16
 70
     1
102
RTVSPropertyOp17
 70
     1
102
RTVSPropertyOp18
 70
     1
102
RTVSPropertyOp19
 70
     1
102
RTVSPropertyOp20
 70
     1
102
RTVSPropertyOp21
 70
     1
102
RTVSPropertyOp22
 70
     1
102
RTVSPropertyOp23
 70
     1
102
RTVSPropertyOp24
 70
     1
102
RTVSPropertyOp25
 70
     1
102
RTVSPropertyOp26
 70
     1
102
RTVSPropertyOp27
 70
     1
102
RTVSPropertyOp28
 70
     1
102
RTVSPropertyOp29
 70
     1
102
RTVSPropertyOp30
 70
     1
102
RTVSPropertyOp31
 70
     1
102
RTVSPropertyOp32
 70
     1
  0
XRECORD
  5
330
102
{ACAD_REACTORS
330
32F
102
}
330
32F
100
AcDbXrecord
280
     1
102
RTVSPropertyOp0
 70
     1
102
RTVSPropertyOp1
 70
     1
102
RTVSPropertyOp2
 70
     1
102
RTVSPropertyOp3
 70
     1
102
RTVSPropertyOp4
 70
     1
102
RTVSPropertyOp5
 70
     1
102
RTVSPropertyOp6
 70
     1
102
RTVSPropertyOp7
 70
     1
102
RTVSPropertyOp8
 70
     1
102
RTVSPropertyOp9
 70
     1
102
RTVSPropertyOp10
 70
     1
102
RTVSPropertyOp11
 70
     1
102
RTVSPropertyOp12
 70
     1
102
RTVSPropertyOp13
 70
     1
102
RTVSPropertyOp14
 70
     1
102
RTVSPropertyOp15
 70
     1
102
RTVSPropertyOp16
 70
     1
102
RTVSPropertyOp17
 70
     1
102
RTVSPropertyOp18
 70
     1
102
RTVSPropertyOp19
 70
     1
102
RTVSPropertyOp20
 70
     1
102
RTVSPropertyOp21
 70
     1
102
RTVSPropertyOp22
 70
     1
102
RTVSPropertyOp23
 70
     1
102
RTVSPropertyOp24
 70
     1
102
RTVSPropertyOp25
 70
     1
102
RTVSPropertyOp26
 70
     1
102
RTVSPropertyOp27
 70
     1
102
RTVSPropertyOp28
 70
     1
102
RTVSPropertyOp29
 70
     1
102
RTVSPropertyOp30
 70
     1
102
RTVSPropertyOp31
 70
     1
102
RTVSPropertyOp32
 70
     1
  0
XRECORD
  5
314
102
{ACAD_REACTORS
330
313
102
}
330
313
100
AcDbXrecord
280
     1
102
RTVSPropertyOp0
 70
     1
102
RTVSPropertyOp1
 70
     1
102
RTVSPropertyOp2
 70
     1
102
RTVSPropertyOp3
 70
     1
102
RTVSPropertyOp4
 70
     1
102
RTVSPropertyOp5
 70
     1
102
RTVSPropertyOp6
 70
     1
102
RTVSPropertyOp7
 70
     1
102
RTVSPropertyOp8
 70
     1
102
RTVSPropertyOp9
 70
     1
102
RTVSPropertyOp10
 70
     1
102
RTVSPropertyOp11
 70
     1
102
RTVSPropertyOp12
 70
     1
102
RTVSPropertyOp13
 70
     1
102
RTVSPropertyOp14
 70
     1
102
RTVSPropertyOp15
 70
     1
102
RTVSPropertyOp16
 70
     1
102
RTVSPropertyOp17
 70
     1
102
RTVSPropertyOp18
 70
     1
102
RTVSPropertyOp19
 70
     1
102
RTVSPropertyOp20
 70
     1
102
RTVSPropertyOp21
 70
     1
102
RTVSPropertyOp22
 70
     1
102
RTVSPropertyOp23
 70
     1
102
RTVSPropertyOp24
 70
     1
102
RTVSPropertyOp25
 70
     1
102
RTVSPropertyOp26
 70
     1
102
RTVSPropertyOp27
 70
     1
102
RTVSPropertyOp28
 70
     1
102
RTVSPropertyOp29
 70
     1
102
RTVSPropertyOp30
 70
     1
102
RTVSPropertyOp31
 70
     1
102
RTVSPropertyOp32
 70
     1
  0
XRECORD
  5
316
102
{ACAD_REACTORS
330
315
102
}
330
315
100
AcDbXrecord
280
     1
102
RTVSPropertyOp0
 70
     1
102
RTVSPropertyOp1
 70
     1
102
RTVSPropertyOp2
 70
     1
102
RTVSPropertyOp3
 70
     1
102
RTVSPropertyOp4
 70
     1
102
RTVSPropertyOp5
 70
     1
102
RTVSPropertyOp6
 70
     1
102
RTVSPropertyOp7
 70
     1
102
RTVSPropertyOp8
 70
     1
102
RTVSPropertyOp9
 70
     1
102
RTVSPropertyOp10
 70
     1
102
RTVSPropertyOp11
 70
     1
102
RTVSPropertyOp12
 70
     1
102
RTVSPropertyOp13
 70
     1
102
RTVSPropertyOp14
 70
     1
102
RTVSPropertyOp15
 70
     1
102
RTVSPropertyOp16
 70
     1
102
RTVSPropertyOp17
 70
     1
102
RTVSPropertyOp18
 70
     1
102
RTVSPropertyOp19
 70
     1
102
RTVSPropertyOp20
 70
     1
102
RTVSPropertyOp21
 70
     1
102
RTVSPropertyOp22
 70
     1
102
RTVSPropertyOp23
 70
     1
102
RTVSPropertyOp24
 70
     1
102
RTVSPropertyOp25
 70
     1
102
RTVSPropertyOp26
 70
     1
102
RTVSPropertyOp27
 70
     1
102
RTVSPropertyOp28
 70
     1
102
RTVSPropertyOp29
 70
     1
102
RTVSPropertyOp30
 70
     1
102
RTVSPropertyOp31
 70
     1
102
RTVSPropertyOp32
 70
     1
  0
XRECORD
  5
318
102
{ACAD_REACTORS
330
317
102
}
330
317
100
AcDbXrecord
280
     1
102
RTVSPropertyOp0
 70
     1
102
RTVSPropertyOp1
 70
     1
102
RTVSPropertyOp2
 70
     1
102
RTVSPropertyOp3
 70
     1
102
RTVSPropertyOp4
 70
     1
102
RTVSPropertyOp5
 70
     1
102
RTVSPropertyOp6
 70
     1
102
RTVSPropertyOp7
 70
     1
102
RTVSPropertyOp8
 70
     1
102
RTVSPropertyOp9
 70
     1
102
RTVSPropertyOp10
 70
     1
102
RTVSPropertyOp11
 70
     1
102
RTVSPropertyOp12
 70
     1
102
RTVSPropertyOp13
 70
     1
102
RTVSPropertyOp14
 70
     1
102
RTVSPropertyOp15
 70
     1
102
RTVSPropertyOp16
 70
     1
102
RTVSPropertyOp17
 70
     1
102
RTVSPropertyOp18
 70
     1
102
RTVSPropertyOp19
 70
     1
102
RTVSPropertyOp20
 70
     1
102
RTVSPropertyOp21
 70
     1
102
RTVSPropertyOp22
 70
     1
102
RTVSPropertyOp23
 70
     1
102
RTVSPropertyOp24
 70
     1
102
RTVSPropertyOp25
 70
     1
102
RTVSPropertyOp26
 70
     1
102
RTVSPropertyOp27
 70
     1
102
RTVSPropertyOp28
 70
     1
102
RTVSPropertyOp29
 70
     1
102
RTVSPropertyOp30
 70
     1
102
RTVSPropertyOp31
 70
     1
102
RTVSPropertyOp32
 70
     1
  0
XRECORD
  5
31A
102
{ACAD_REACTORS
330
319
102
}
330
319
100
AcDbXrecord
280
     1
102
RTVSPropertyOp0
 70
     1
102
RTVSPropertyOp1
 70
     1
102
RTVSPropertyOp2
 70
     1
102
RTVSPropertyOp3
 70
     1
102
RTVSPropertyOp4
 70
     1
102
RTVSPropertyOp5
 70
     1
102
RTVSPropertyOp6
 70
     1
102
RTVSPropertyOp7
 70
     1
102
RTVSPropertyOp8
 70
     1
102
RTVSPropertyOp9
 70
     1
102
RTVSPropertyOp10
 70
     1
102
RTVSPropertyOp11
 70
     1
102
RTVSPropertyOp12
 70
     1
102
RTVSPropertyOp13
 70
     1
102
RTVSPropertyOp14
 70
     1
102
RTVSPropertyOp15
 70
     1
102
RTVSPropertyOp16
 70
     1
102
RTVSPropertyOp17
 70
     1
102
RTVSPropertyOp18
 70
     1
102
RTVSPropertyOp19
 70
     1
102
RTVSPropertyOp20
 70
     1
102
RTVSPropertyOp21
 70
     1
102
RTVSPropertyOp22
 70
     1
102
RTVSPropertyOp23
 70
     1
102
RTVSPropertyOp24
 70
     1
102
RTVSPropertyOp25
 70
     1
102
RTVSPropertyOp26
 70
     1
102
RTVSPropertyOp27
 70
     1
102
RTVSPropertyOp28
 70
     1
102
RTVSPropertyOp29
 70
     1
102
RTVSPropertyOp30
 70
     1
102
RTVSPropertyOp31
 70
     1
102
RTVSPropertyOp32
 70
     1
  0
XRECORD
  5
32E
102
{ACAD_REACTORS
330
32D
102
}
330
32D
100
AcDbXrecord
280
     1
102
RTVSPropertyOp0
 70
     1
102
RTVSPropertyOp1
 70
     1
102
RTVSPropertyOp2
 70
     1
102
RTVSPropertyOp3
 70
     1
102
RTVSPropertyOp4
 70
     1
102
RTVSPropertyOp5
 70
     1
102
RTVSPropertyOp6
 70
     1
102
RTVSPropertyOp7
 70
     1
102
RTVSPropertyOp8
 70
     1
102
RTVSPropertyOp9
 70
     1
102
RTVSPropertyOp10
 70
     1
102
RTVSPropertyOp11
 70
     1
102
RTVSPropertyOp12
 70
     1
102
RTVSPropertyOp13
 70
     1
102
RTVSPropertyOp14
 70
     1
102
RTVSPropertyOp15
 70
     1
102
RTVSPropertyOp16
 70
     1
102
RTVSPropertyOp17
 70
     1
102
RTVSPropertyOp18
 70
     1
102
RTVSPropertyOp19
 70
     1
102
RTVSPropertyOp20
 70
     1
102
RTVSPropertyOp21
 70
     1
102
RTVSPropertyOp22
 70
     1
102
RTVSPropertyOp23
 70
     1
102
RTVSPropertyOp24
 70
     1
102
RTVSPropertyOp25
 70
     1
102
RTVSPropertyOp26
 70
     1
102
RTVSPropertyOp27
 70
     1
102
RTVSPropertyOp28
 70
     1
102
RTVSPropertyOp29
 70
     1
102
RTVSPropertyOp30
 70
     1
102
RTVSPropertyOp31
 70
     1
102
RTVSPropertyOp32
 70
     1
  0
XRECORD
  5
324
102
{ACAD_REACTORS
330
323
102
}
330
323
100
AcDbXrecord
280
     1
102
RTVSPropertyOp0
 70
     1
102
RTVSPropertyOp1
 70
     1
102
RTVSPropertyOp2
 70
     1
102
RTVSPropertyOp3
 70
     1
102
RTVSPropertyOp4
 70
     1
102
RTVSPropertyOp5
 70
     1
102
RTVSPropertyOp6
 70
     1
102
RTVSPropertyOp7
 70
     1
102
RTVSPropertyOp8
 70
     1
102
RTVSPropertyOp9
 70
     1
102
RTVSPropertyOp10
 70
     1
102
RTVSPropertyOp11
 70
     1
102
RTVSPropertyOp12
 70
     1
102
RTVSPropertyOp13
 70
     1
102
RTVSPropertyOp14
 70
     1
102
RTVSPropertyOp15
 70
     1
102
RTVSPropertyOp16
 70
     1
102
RTVSPropertyOp17
 70
     1
102
RTVSPropertyOp18
 70
     1
102
RTVSPropertyOp19
 70
     1
102
RTVSPropertyOp20
 70
     1
102
RTVSPropertyOp21
 70
     1
102
RTVSPropertyOp22
 70
     1
102
RTVSPropertyOp23
 70
     1
102
RTVSPropertyOp24
 70
     1
102
RTVSPropertyOp25
 70
     1
102
RTVSPropertyOp26
 70
     1
102
RTVSPropertyOp27
 70
     1
102
RTVSPropertyOp28
 70
     1
102
RTVSPropertyOp29
 70
     1
102
RTVSPropertyOp30
 70
     1
102
RTVSPropertyOp31
 70
     1
102
RTVSPropertyOp32
 70
     1
  0
XRECORD
  5
32C
102
{ACAD_REACTORS
330
32B
102
}
330
32B
100
AcDbXrecord
280
     1
102
RTVSPropertyOp0
 70
     1
102
RTVSPropertyOp1
 70
     1
102
RTVSPropertyOp2
 70
     1
102
RTVSPropertyOp3
 70
     1
102
RTVSPropertyOp4
 70
     1
102
RTVSPropertyOp5
 70
     1
102
RTVSPropertyOp6
 70
     1
102
RTVSPropertyOp7
 70
     1
102
RTVSPropertyOp8
 70
     1
102
RTVSPropertyOp9
 70
     1
102
RTVSPropertyOp10
 70
     1
102
RTVSPropertyOp11
 70
     1
102
RTVSPropertyOp12
 70
     1
102
RTVSPropertyOp13
 70
     1
102
RTVSPropertyOp14
 70
     1
102
RTVSPropertyOp15
 70
     1
102
RTVSPropertyOp16
 70
     1
102
RTVSPropertyOp17
 70
     1
102
RTVSPropertyOp18
 70
     1
102
RTVSPropertyOp19
 70
     1
102
RTVSPropertyOp20
 70
     1
102
RTVSPropertyOp21
 70
     1
102
RTVSPropertyOp22
 70
     1
102
RTVSPropertyOp23
 70
     1
102
RTVSPropertyOp24
 70
     1
102
RTVSPropertyOp25
 70
     1
102
RTVSPropertyOp26
 70
     1
102
RTVSPropertyOp27
 70
     1
102
RTVSPropertyOp28
 70
     1
102
RTVSPropertyOp29
 70
     1
102
RTVSPropertyOp30
 70
     1
102
RTVSPropertyOp31
 70
     1
102
RTVSPropertyOp32
 70
     1
  0
ENDSEC
  0
EOF
