  0
SECTION
  2
HEADER
  9
$ACADVER
  1
AC1015
  9
$ACADMAINTVER
 70
     6
  9
$DWGCODEPAGE
  3
ANSI_1252
  9
$INSBASE
 10
0.0
 20
0.0
 30
0.0
  9
$EXTMIN
 10
1.000000000000000E+20
 20
1.000000000000000E+20
 30
1.000000000000000E+20
  9
$EXTMAX
 10
-1.000000000000000E+20
 20
-1.000000000000000E+20
 30
-1.000000000000000E+20
  9
$LIMMIN
 10
0.0
 20
0.0
  9
$LIMMAX
 10
12.0
 20
9.0
  9
$ORTHOMODE
 70
     0
  9
$REGENMODE
 70
     1
  9
$FILLMODE
 70
     1
  9
$QTEXTMODE
 70
     0
  9
$MIRRTEXT
 70
     1
  9
$LTSCALE
 40
1.0
  9
$ATTMODE
 70
     1
  9
$TEXTSIZE
 40
0.2
  9
$TRACEWID
 40
0.05
  9
$TEXTSTYLE
  7
Standard
  9
$CLAYER
  8
0
  9
$CELTYPE
  6
ByLayer
  9
$CECOLOR
 62
   256
  9
$CELTSCALE
 40
1.0
  9
$DISPSILH
 70
     0
  9
$DIMSCALE
 40
1.0
  9
$DIMASZ
 40
0.18
  9
$DIMEXO
 40
0.0625
  9
$DIMDLI
 40
0.38
  9
$DIMRND
 40
0.0
  9
$DIMDLE
 40
0.0
  9
$DIMEXE
 40
0.18
  9
$DIMTP
 40
0.0
  9
$DIMTM
 40
0.0
  9
$DIMTXT
 40
0.18
  9
$DIMCEN
 40
0.09
  9
$DIMTSZ
 40
0.0
  9
$DIMTOL
 70
     0
  9
$DIMLIM
 70
     0
  9
$DIMTIH
 70
     1
  9
$DIMTOH
 70
     1
  9
$DIMSE1
 70
     0
  9
$DIMSE2
 70
     0
  9
$DIMTAD
 70
     0
  9
$DIMZIN
 70
     0
  9
$DIMBLK
  1

  9
$DIMASO
 70
     1
  9
$DIMSHO
 70
     1
  9
$DIMPOST
  1

  9
$DIMAPOST
  1

  9
$DIMALT
 70
     0
  9
$DIMALTD
 70
     2
  9
$DIMALTF
 40
25.4
  9
$DIMLFAC
 40
1.0
  9
$DIMTOFL
 70
     0
  9
$DIMTVP
 40
0.0
  9
$DIMTIX
 70
     0
  9
$DIMSOXD
 70
     0
  9
$DIMSAH
 70
     0
  9
$DIMBLK1
  1

  9
$DIMBLK2
  1

  9
$DIMSTYLE
  2
Standard
  9
$DIMCLRD
 70
     0
  9
$DIMCLRE
 70
     0
  9
$DIMCLRT
 70
     0
  9
$DIMTFAC
 40
1.0
  9
$DIMGAP
 40
0.09
  9
$DIMJUST
 70
     0
  9
$DIMSD1
 70
     0
  9
$DIMSD2
 70
     0
  9
$DIMTOLJ
 70
     1
  9
$DIMTZIN
 70
     0
  9
$DIMALTZ
 70
     0
  9
$DIMALTTZ
 70
     0
  9
$DIMUPT
 70
     0
  9
$DIMDEC
 70
     4
  9
$DIMTDEC
 70
     4
  9
$DIMALTU
 70
     2
  9
$DIMALTTD
 70
     2
  9
$DIMTXSTY
  7
Standard
  9
$DIMAUNIT
 70
     0
  9
$DIMADEC
 70
     0
  9
$DIMALTRND
 40
0.0
  9
$DIMAZIN
 70
     0
  9
$DIMDSEP
 70
    46
  9
$DIMATFIT
 70
     3
  9
$DIMFRAC
 70
     0
  9
$DIMLDRBLK
  1

  9
$DIMLUNIT
 70
     2
  9
$DIMLWD
 70
    -2
  9
$DIMLWE
 70
    -2
  9
$DIMTMOVE
 70
     0
  9
$LUNITS
 70
     2
  9
$LUPREC
 70
     4
  9
$SKETCHINC
 40
0.1
  9
$FILLETRAD
 40
0.5
  9
$AUNITS
 70
     0
  9
$AUPREC
 70
     0
  9
$MENU
  1
.
  9
$ELEVATION
 40
0.0
  9
$PELEVATION
 40
0.0
  9
$THICKNESS
 40
0.0
  9
$LIMCHECK
 70
     0
  9
$CHAMFERA
 40
0.5
  9
$CHAMFERB
 40
0.5
  9
$CHAMFERC
 40
1.0
  9
$CHAMFERD
 40
0.0
  9
$SKPOLY
 70
     0
  9
$TDCREATE
 40
2458927.515799537
  9
$TDUCREATE
 40
2458926.97413287
  9
$TDUPDATE
 40
2458927.515799664
  9
$TDUUPDATE
 40
2458926.974132998
  9
$TDINDWG
 40
0.0000000116
  9
$TDUSRTIMER
 40
0.0000000116
  9
$USRTIMER
 70
     1
  9
$ANGBASE
 50
0.0
  9
$ANGDIR
 70
     0
  9
$PDMODE
 70
     0
  9
$PDSIZE
 40
0.0
  9
$PLINEWID
 40
0.0
  9
$SPLFRAME
 70
     0
  9
$SPLINETYPE
 70
     6
  9
$SPLINESEGS
 70
     8
  9
$HANDSEED
  5
34D
  9
$SURFTAB1
 70
     6
  9
$SURFTAB2
 70
     6
  9
$SURFTYPE
 70
     6
  9
$SURFU
 70
     6
  9
$SURFV
 70
     6
  9
$UCSBASE
  2

  9
$UCSNAME
  2

  9
$UCSORG
 10
0.0
 20
0.0
 30
0.0
  9
$UCSXDIR
 10
1.0
 20
0.0
 30
0.0
  9
$UCSYDIR
 10
0.0
 20
1.0
 30
0.0
  9
$UCSORTHOREF
  2

  9
$UCSORTHOVIEW
 70
     0
  9
$UCSORGTOP
 10
0.0
 20
0.0
 30
0.0
  9
$UCSORGBOTTOM
 10
0.0
 20
0.0
 30
0.0
  9
$UCSORGLEFT
 10
0.0
 20
0.0
 30
0.0
  9
$UCSORGRIGHT
 10
0.0
 20
0.0
 30
0.0
  9
$UCSORGFRONT
 10
0.0
 20
0.0
 30
0.0
  9
$UCSORGBACK
 10
0.0
 20
0.0
 30
0.0
  9
$PUCSBASE
  2

  9
$PUCSNAME
  2

  9
$PUCSORG
 10
0.0
 20
0.0
 30
0.0
  9
$PUCSXDIR
 10
1.0
 20
0.0
 30
0.0
  9
$PUCSYDIR
 10
0.0
 20
1.0
 30
0.0
  9
$PUCSORTHOREF
  2

  9
$PUCSORTHOVIEW
 70
     0
  9
$PUCSORGTOP
 10
0.0
 20
0.0
 30
0.0
  9
$PUCSORGBOTTOM
 10
0.0
 20
0.0
 30
0.0
  9
$PUCSORGLEFT
 10
0.0
 20
0.0
 30
0.0
  9
$PUCSORGRIGHT
 10
0.0
 20
0.0
 30
0.0
  9
$PUCSORGFRONT
 10
0.0
 20
0.0
 30
0.0
  9
$PUCSORGBACK
 10
0.0
 20
0.0
 30
0.0
  9
$USERI1
 70
     0
  9
$USERI2
 70
     0
  9
$USERI3
 70
     0
  9
$USERI4
 70
     0
  9
$USERI5
 70
     0
  9
$USERR1
 40
0.0
  9
$USERR2
 40
0.0
  9
$USERR3
 40
0.0
  9
$USERR4
 40
0.0
  9
$USERR5
 40
0.0
  9
$WORLDVIEW
 70
     1
  9
$SHADEDGE
 70
     3
  9
$SHADEDIF
 70
    70
  9
$TILEMODE
 70
     1
  9
$MAXACTVP
 70
    64
  9
$PINSBASE
 10
0.0
 20
0.0
 30
0.0
  9
$PLIMCHECK
 70
     0
  9
$PEXTMIN
 10
1.000000000000000E+20
 20
1.000000000000000E+20
 30
1.000000000000000E+20
  9
$PEXTMAX
 10
-1.000000000000000E+20
 20
-1.000000000000000E+20
 30
-1.000000000000000E+20
  9
$PLIMMIN
 10
0.0
 20
0.0
  9
$PLIMMAX
 10
12.0
 20
9.0
  9
$UNITMODE
 70
     0
  9
$VISRETAIN
 70
     1
  9
$PLINEGEN
 70
     0
  9
$PSLTSCALE
 70
     1
  9
$TREEDEPTH
 70
  3020
  9
$CMLSTYLE
  2
Standard
  9
$CMLJUST
 70
     0
  9
$CMLSCALE
 40
1.0
  9
$PROXYGRAPHICS
 70
     1
  9
$MEASUREMENT
 70
     0
  9
$CELWEIGHT
370
    -1
  9
$ENDCAPS
280
     0
  9
$JOINSTYLE
280
     0
  9
$LWDISPLAY
290
     1
  9
$INSUNITS
 70
     4
  9
$HYPERLINKBASE
  1

  9
$STYLESHEET
  1

  9
$XEDIT
290
     1
  9
$CEPSNTYPE
380
     0
  9
$PSTYLEMODE
290
     1
  9
$FINGERPRINTGUID
  2
{06D5B356-E083-4186-9347-84750504668A}
  9
$VERSIONGUID
  2
{FAEB1C32-E019-11D5-929B-00C0DF256EC4}
  9
$EXTNAMES
290
     1
  9
$PSVPSCALE
 40
0.0
  9
$OLESTARTUP
290
     0
  0
ENDSEC
  0
SECTION
  2
CLASSES
  0
CLASS
  1
ACDBDICTIONARYWDFLT
  2
AcDbDictionaryWithDefault
  3
ObjectDBX Classes
 90
        0
280
     0
281
     0
  0
CLASS
  1
VISUALSTYLE
  2
AcDbVisualStyle
  3
ObjectDBX Classes
 90
     4095
280
     0
281
     0
  0
CLASS
  1
MATERIAL
  2
AcDbMaterial
  3
ObjectDBX Classes
 90
     1153
280
     0
281
     0
  0
CLASS
  1
SUN
  2
AcDbSun
  3
SCENEOE
 90
     1024
280
     0
281
     0
  0
CLASS
  1
DICTIONARYVAR
  2
AcDbDictionaryVar
  3
ObjectDBX Classes
 90
        0
280
     0
281
     0
  0
CLASS
  1
ACDBPLACEHOLDER
  2
AcDbPlaceHolder
  3
ObjectDBX Classes
 90
        0
280
     0
281
     0
  0
CLASS
  1
LAYOUT
  2
AcDbLayout
  3
ObjectDBX Classes
 90
        0
280
     0
281
     0
  0
ENDSEC
  0
SECTION
  2
TABLES
  0
TABLE
  2
VPORT
  5
8
330
0
100
AcDbSymbolTable
 70
     1
  0
VPORT
  5
29
330
8
100
AcDbSymbolTableRecord
100
AcDbViewportTableRecord
  2
*Active
 70
     0
 10
0.0
 20
0.0
 11
1.0
 21
1.0
 12
0.0
 22
0.0
 13
0.0
 23
0.0
 14
0.5
 24
0.5
 15
0.5
 25
0.5
 16
0.0
 26
0.0
 36
1.0
 17
594.4993281255732
 27
420.5005173373662
 37
0.0
 40
841.0010346747324
 41
1.413789766276573
 42
50.0
 43
0.0
 44
0.0
 50
0.0
 51
0.0
 71
     0
 72
   100
 73
     1
 74
     3
 75
     0
 76
     0
 77
     0
 78
     0
281
     0
 65
     1
110
0.0
120
0.0
130
0.0
111
1.0
121
0.0
131
0.0
112
0.0
122
1.0
132
0.0
 79
     0
146
0.0
  0
ENDTAB
  0
TABLE
  2
LTYPE
  5
5
330
0
100
AcDbSymbolTable
 70
     1
  0
LTYPE
  5
14
330
5
100
AcDbSymbolTableRecord
100
AcDbLinetypeTableRecord
  2
ByBlock
 70
     0
  3

 72
    65
 73
     0
 40
0.0
  0
LTYPE
  5
15
330
5
100
AcDbSymbolTableRecord
100
AcDbLinetypeTableRecord
  2
ByLayer
 70
     0
  3

 72
    65
 73
     0
 40
0.0
  0
LTYPE
  5
16
330
5
100
AcDbSymbolTableRecord
100
AcDbLinetypeTableRecord
  2
Continuous
 70
     0
  3
Solid line
 72
    65
 73
     0
 40
0.0
  0
ENDTAB
  0
TABLE
  2
LAYER
  5
2
330
0
100
AcDbSymbolTable
 70
     2
  0
LAYER
  5
10
330
2
100
AcDbSymbolTableRecord
100
AcDbLayerTableRecord
  2
0
 70
     0
 62
     7
  6
Continuous
370
    -3
390
F
  0
LAYER
  5
40
330
2
100
AcDbSymbolTableRecord
100
AcDbLayerTableRecord
  2
Layer 1
 70
     0
 62
     7
  6
Continuous
370
    -3
390
F
  0
ENDTAB
  0
TABLE
  2
STYLE
  5
3
330
0
100
AcDbSymbolTable
 70
     1
  0
STYLE
  5
11
330
3
100
AcDbSymbolTableRecord
100
AcDbTextStyleTableRecord
  2
Standard
 70
     0
 40
0.0
 41
1.0
 50
0.0
 71
     0
 42
0.2
  3
txt
  4

  0
ENDTAB
  0
TABLE
  2
VIEW
  5
6
330
0
100
AcDbSymbolTable
 70
     0
  0
ENDTAB
  0
TABLE
  2
UCS
  5
7
330
0
100
AcDbSymbolTable
 70
     0
  0
ENDTAB
  0
TABLE
  2
APPID
  5
9
330
0
100
AcDbSymbolTable
 70
     1
  0
APPID
  5
12
330
9
100
AcDbSymbolTableRecord
100
AcDbRegAppTableRecord
  2
ACAD
 70
     0
  0
ENDTAB
  0
TABLE
  2
DIMSTYLE
  5
A
330
0
100
AcDbSymbolTable
 70
     1
100
AcDbDimStyleTable
  0
DIMSTYLE
105
27
330
A
100
AcDbSymbolTableRecord
100
AcDbDimStyleTableRecord
  2
Standard
 70
     0
178
     0
340
11
  0
ENDTAB
  0
TABLE
  2
BLOCK_RECORD
  5
1
330
0
100
AcDbSymbolTable
 70
     9
  0
BLOCK_RECORD
  5
1F
330
1
100
AcDbSymbolTableRecord
100
AcDbBlockTableRecord
  2
*Model_Space
340
22
  0
BLOCK_RECORD
  5
1B
330
1
100
AcDbSymbolTableRecord
100
AcDbBlockTableRecord
  2
*Paper_Space
340
1E
  0
BLOCK_RECORD
  5
23
330
1
100
AcDbSymbolTableRecord
100
AcDbBlockTableRecord
  2
*Paper_Space0
340
26
  0
BLOCK_RECORD
  5
41
330
1
100
AcDbSymbolTableRecord
100
AcDbBlockTableRecord
  2
block 2
340
0
102
{BLKREFS
331
42
102
}
  0
BLOCK_RECORD
  5
83
330
1
100
AcDbSymbolTableRecord
100
AcDbBlockTableRecord
  2
block 3
340
0
102
{BLKREFS
331
84
102
}
  0
BLOCK_RECORD
  5
C2
330
1
100
AcDbSymbolTableRecord
100
AcDbBlockTableRecord
  2
block 4
340
0
102
{BLKREFS
331
C3
102
}
  0
BLOCK_RECORD
  5
EB
330
1
100
AcDbSymbolTableRecord
100
AcDbBlockTableRecord
  2
block 5
340
0
102
{BLKREFS
331
EC
102
}
  0
BLOCK_RECORD
  5
101
330
1
100
AcDbSymbolTableRecord
100
AcDbBlockTableRecord
  2
block 6
340
0
102
{BLKREFS
331
102
102
}
  0
BLOCK_RECORD
  5
1B2
330
1
100
AcDbSymbolTableRecord
100
AcDbBlockTableRecord
  2
block 7
340
0
102
{BLKREFS
331
1B3
102
}
  0
BLOCK_RECORD
  5
2AE
330
1
100
AcDbSymbolTableRecord
100
AcDbBlockTableRecord
  2
block 8
340
0
102
{BLKREFS
331
2AF
102
}
  0
BLOCK_RECORD
  5
2C0
330
1
100
AcDbSymbolTableRecord
100
AcDbBlockTableRecord
  2
block 9
340
0
102
{BLKREFS
331
2C1
102
}
  0
ENDTAB
  0
ENDSEC
  0
SECTION
  2
BLOCKS
  0
BLOCK
  5
20
330
1F
100
AcDbEntity
  8
0
100
AcDbBlockBegin
  2
*Model_Space
 70
     0
 10
0.0
 20
0.0
 30
0.0
  3
*Model_Space
  1

  0
ENDBLK
  5
21
330
1F
100
AcDbEntity
  8
0
100
AcDbBlockEnd
  0
BLOCK
  5
1C
330
1B
100
AcDbEntity
 67
     1
  8
0
100
AcDbBlockBegin
  2
*Paper_Space
 70
     0
 10
0.0
 20
0.0
 30
0.0
  3
*Paper_Space
  1

  0
ENDBLK
  5
1D
330
1B
100
AcDbEntity
 67
     1
  8
0
100
AcDbBlockEnd
  0
BLOCK
  5
24
330
23
100
AcDbEntity
  8
0
100
AcDbBlockBegin
  2
*Paper_Space0
 70
     0
 10
0.0
 20
0.0
 30
0.0
  3
*Paper_Space0
  1

  0
ENDBLK
  5
25
330
23
100
AcDbEntity
  8
0
100
AcDbBlockEnd
  0
BLOCK
  5
43
330
41
100
AcDbEntity
  8
0
100
AcDbBlockBegin
  2
block 2
 70
     0
 10
0.0
 20
0.0
 30
0.0
  3
block 2
  1

  0
SPLINE
  5
45
330
41
100
AcDbEntity
  8
Layer 1
 62
    40
370
    13
100
AcDbSpline
210
0.0
220
0.0
230
1.0
 70
    11
 71
     3
 72
    50
 73
    46
 74
     0
 42
0.0000000001
 43
0.0000000001
 12
1.0
 22
0.0
 32
0.0
 13
1.0
 23
0.0
 33
0.0
 40
0.0
 40
0.0
 40
0.0
 40
0.0
 40
1.0
 40
1.0
 40
1.0
 40
2.0
 40
2.0
 40
2.0
 40
3.0
 40
3.0
 40
3.0
 40
4.0
 40
4.0
 40
4.0
 40
5.0
 40
5.0
 40
5.0
 40
6.0
 40
6.0
 40
6.0
 40
7.0
 40
7.0
 40
7.0
 40
8.0
 40
8.0
 40
8.0
 40
9.0
 40
9.0
 40
9.0
 40
10.0
 40
10.0
 40
10.0
 40
11.0
 40
11.0
 40
11.0
 40
12.0
 40
12.0
 40
12.0
 40
13.0
 40
13.0
 40
13.0
 40
14.0
 40
14.0
 40
14.0
 40
15.0
 40
15.0
 40
15.0
 40
15.0
 10
98.9227444506571
 20
803.5149387175433
 30
0.0
 10
98.9227444506571
 20
806.6510229818603
 30
0.0
 10
97.83707422476817
 20
809.3239158949663
 30
0.0
 10
95.66865531448285
 20
811.5326012685281
 30
0.0
 10
93.4993472393908
 20
813.7403974772831
 30
0.0
 10
90.86767346613253
 20
814.8481062879615
 30
0.0
 10
87.78138243085935
 20
814.8481062879615
 30
0.0
 10
84.70474518488646
 20
814.8481062879615
 30
0.0
 10
82.0808198477792
 20
813.7403974772831
 30
0.0
 10
79.91233742572255
 20
811.5316485919456
 30
0.0
 10
77.74302935063501
 20
809.3201051886671
 30
0.0
 10
76.65926447789538
 20
806.6453069223992
 30
0.0
 10
76.65926447789538
 20
803.5082064697384
 30
0.0
 10
76.65926447789538
 20
800.3692641757125
 30
0.0
 10
77.74201316228536
 20
797.7011346454741
 30
0.0
 10
79.91233742572255
 20
795.5029922260302
 30
0.0
 10
82.07891449462734
 20
793.3038971299967
 30
0.0
 10
84.70188715515853
 20
792.206731273419
 30
0.0
 10
87.77661904798116
 20
792.206731273419
 30
0.0
 10
90.26151711677976
 20
792.206731273419
 30
0.0
 10
92.45680150650243
 20
792.8819249186445
 30
0.0
 10
94.35669264592777
 20
794.2265326378731
 30
0.0
 10
96.25366224385385
 20
795.5720295218911
 30
0.0
 10
97.54650786911682
 20
797.3817974572357
 30
0.0
 10
98.23510249817501
 20
799.6480244959823
 30
0.0
 10
98.23510249817501
 20
799.6480244959823
 30
0.0
 10
92.85578245649016
 20
799.6480244959823
 30
0.0
 10
92.85578245649016
 20
799.6480244959823
 30
0.0
 10
92.42898335048483
 20
798.8146230273886
 30
0.0
 10
91.77011223059898
 20
798.1452089533964
 30
0.0
 10
90.87338952558842
 20
797.646514521792
 30
0.0
 10
89.9766668205846
 20
797.1458512252751
 30
0.0
 10
88.98982091149406
 20
796.8984093626349
 30
0.0
 10
87.9099302568301
 20
796.8984093626349
 30
0.0
 10
86.16926312912425
 20
796.8984093626349
 30
0.0
 10
84.71433546241578
 20
797.5275569733519
 30
0.0
 10
83.54717963339785
 20
798.791568254254
 30
0.0
 10
82.87103331160108
 20
799.5300831358828
 30
0.0
 10
82.38675605218064
 20
800.3596738981703
 30
0.0
 10
82.09809504969044
 20
801.2765298348133
 30
0.0
 10
82.09809504969044
 20
801.2765298348133
 30
0.0
 10
98.73570228292385
 20
801.2765298348133
 30
0.0
 10
98.73570228292385
 20
801.2765298348133
 30
0.0
 10
98.8603758908215
 20
802.0082489568724
 30
0.0
 10
98.9227444506571
 20
802.7563541160437
 30
0.0
 10
98.9227444506571
 20
803.5149387175433
 30
0.0
  0
SPLINE
  5
46
330
41
100
AcDbEntity
  8
Layer 1
 62
    40
370
    13
100
AcDbSpline
210
0.0
220
0.0
230
1.0
 70
    11
 71
     3
 72
    20
 73
    16
 74
     0
 42
0.0000000001
 43
0.0000000001
 12
1.0
 22
0.0
 32
0.0
 13
1.0
 23
0.0
 33
0.0
 40
0.0
 40
0.0
 40
0.0
 40
0.0
 40
1.0
 40
1.0
 40
1.0
 40
2.0
 40
2.0
 40
2.0
 40
3.0
 40
3.0
 40
3.0
 40
4.0
 40
4.0
 40
4.0
 40
5.0
 40
5.0
 40
5.0
 40
5.0
 10
81.94941399207828
 20
805.340012989881
 30
0.0
 10
82.23616964142111
 20
806.4381315230274
 30
0.0
 10
82.7521392749223
 20
807.4077657419739
 30
0.0
 10
83.49446486286287
 20
808.2488521349511
 30
0.0
 10
84.64917238462579
 20
809.5205483402342
 30
0.0
 10
86.0791399250459
 20
810.155412010412
 30
0.0
 10
87.78811467866457
 20
810.155412010412
 30
0.0
 10
89.4942949143205
 20
810.155412010412
 30
0.0
 10
90.92616780789504
 20
809.5205483402342
 30
0.0
 10
92.0808753296493
 20
808.2488521349511
 30
0.0
 10
92.84905020868237
 20
807.4202140492395
 30
0.0
 10
93.35739842958223
 20
806.4515325068688
 30
0.0
 10
93.60769832195972
 20
805.340012989881
 30
0.0
 10
93.60769832195972
 20
805.340012989881
 30
0.0
 10
81.94941399207828
 20
805.340012989881
 30
0.0
 10
81.94941399207828
 20
805.340012989881
 30
0.0
  0
POLYLINE
  5
47
330
41
100
AcDbEntity
  8
Layer 1
 62
    40
370
    13
100
AcDb2dPolyline
 66
     1
 10
0.0
 20
0.0
 30
0.0
  0
VERTEX
  5
48
330
47
100
AcDbEntity
  8
Layer 1
 62
    40
370
    13
100
AcDbVertex
100
AcDb2dVertex
 10
120.5551975337298
 20
814.1594576340824
 30
0.0
  0
VERTEX
  5
49
330
47
100
AcDbEntity
  8
Layer 1
 62
    40
370
    13
100
AcDbVertex
100
AcDb2dVertex
 10
114.6099872395155
 20
814.1594576340824
 30
0.0
  0
VERTEX
  5
4A
330
47
100
AcDbEntity
  8
Layer 1
 62
    40
370
    13
100
AcDbVertex
100
AcDb2dVertex
 10
107.7633223248048
 20
804.0145883096317
 30
0.0
  0
VERTEX
  5
4B
330
47
100
AcDbEntity
  8
Layer 1
 62
    40
370
    13
100
AcDbVertex
100
AcDb2dVertex
 10
107.7565906831558
 20
804.0145883096317
 30
0.0
  0
VERTEX
  5
4C
330
47
100
AcDbEntity
  8
Layer 1
 62
    40
370
    13
100
AcDbVertex
100
AcDb2dVertex
 10
107.7565906831558
 20
821.2871539535381
 30
0.0
  0
VERTEX
  5
4D
330
47
100
AcDbEntity
  8
Layer 1
 62
    40
370
    13
100
AcDbVertex
100
AcDb2dVertex
 10
102.6275480365828
 20
821.2871539535381
 30
0.0
  0
VERTEX
  5
4E
330
47
100
AcDbEntity
  8
Layer 1
 62
    40
370
    13
100
AcDbVertex
100
AcDb2dVertex
 10
102.6275480365828
 20
792.893396802363
 30
0.0
  0
VERTEX
  5
4F
330
47
100
AcDbEntity
  8
Layer 1
 62
    40
370
    13
100
AcDbVertex
100
AcDb2dVertex
 10
107.7565906831558
 20
792.893396802363
 30
0.0
  0
VERTEX
  5
50
330
47
100
AcDbEntity
  8
Layer 1
 62
    40
370
    13
100
AcDbVertex
100
AcDb2dVertex
 10
107.7565906831558
 20
802.9941555815229
 30
0.0
  0
VERTEX
  5
51
330
47
100
AcDbEntity
  8
Layer 1
 62
    40
370
    13
100
AcDbVertex
100
AcDb2dVertex
 10
115.3474824839075
 20
792.893396802363
 30
0.0
  0
VERTEX
  5
52
330
47
100
AcDbEntity
  8
Layer 1
 62
    40
370
    13
100
AcDbVertex
100
AcDb2dVertex
 10
121.4902518264425
 20
792.893396802363
 30
0.0
  0
VERTEX
  5
53
330
47
100
AcDbEntity
  8
Layer 1
 62
    40
370
    13
100
AcDbVertex
100
AcDb2dVertex
 10
112.6218700492173
 20
803.8812798540249
 30
0.0
  0
VERTEX
  5
54
330
47
100
AcDbEntity
  8
Layer 1
 62
    40
370
    13
100
AcDbVertex
100
AcDb2dVertex
 10
120.5551975337298
 20
814.1594576340824
 30
0.0
  0
SEQEND
  5
55
330
47
100
AcDbEntity
  8
Layer 1
 62
    40
370
    13
  0
SPLINE
  5
56
330
41
100
AcDbEntity
  8
Layer 1
 62
    40
370
    13
100
AcDbSpline
210
0.0
220
0.0
230
1.0
 70
    11
 71
     3
 72
    17
 73
    13
 74
     0
 42
0.0000000001
 43
0.0000000001
 12
1.0
 22
0.0
 32
0.0
 13
1.0
 23
0.0
 33
0.0
 40
0.0
 40
0.0
 40
0.0
 40
0.0
 40
1.0
 40
1.0
 40
1.0
 40
2.0
 40
2.0
 40
2.0
 40
3.0
 40
3.0
 40
3.0
 40
4.0
 40
4.0
 40
4.0
 40
4.0
 10
124.2648305343213
 20
821.7033763927963
 30
0.0
 10
123.0573447302604
 20
821.7033763927963
 30
0.0
 10
122.0494129129569
 20
820.7500646991798
 30
0.0
 10
122.0494129129569
 20
819.487006094864
 30
0.0
 10
122.0494129129569
 20
818.2229948139623
 30
0.0
 10
123.0573447302604
 20
817.2696831203458
 30
0.0
 10
124.2648305343213
 20
817.2696831203458
 30
0.0
 10
125.4674259319614
 20
817.2696831203458
 30
0.0
 10
126.4831061854069
 20
818.2229948139623
 30
0.0
 10
126.4831061854069
 20
819.487006094864
 30
0.0
 10
126.4831061854069
 20
820.7500646991798
 30
0.0
 10
125.4674259319614
 20
821.7033763927963
 30
0.0
 10
124.2648305343213
 20
821.7033763927963
 30
0.0
  0
SPLINE
  5
57
330
41
100
AcDbEntity
  8
Layer 1
 62
    40
370
    13
100
AcDbSpline
210
0.0
220
0.0
230
1.0
 70
    11
 71
     3
 72
    17
 73
    13
 74
     0
 42
0.0000000001
 43
0.0000000001
 12
1.0
 22
0.0
 32
0.0
 13
1.0
 23
0.0
 33
0.0
 40
0.0
 40
0.0
 40
0.0
 40
0.0
 40
1.0
 40
1.0
 40
1.0
 40
2.0
 40
2.0
 40
2.0
 40
3.0
 40
3.0
 40
3.0
 40
4.0
 40
4.0
 40
4.0
 40
4.0
 10
124.2648305343213
 20
817.5928945266659
 30
0.0
 10
123.2471814159481
 20
817.5928945266659
 30
0.0
 10
122.4425507799435
 20
818.413847687997
 30
0.0
 10
122.4425507799435
 20
819.487006094864
 30
0.0
 10
122.4425507799435
 20
820.5582591485693
 30
0.0
 10
123.2471814159481
 20
821.3821338514099
 30
0.0
 10
124.2648305343213
 20
821.3821338514099
 30
0.0
 10
125.2794945994214
 20
821.3821338514099
 30
0.0
 10
126.0899048066512
 20
820.5582591485693
 30
0.0
 10
126.0899048066512
 20
819.487006094864
 30
0.0
 10
126.0899048066512
 20
818.413847687997
 30
0.0
 10
125.2794945994214
 20
817.5928945266659
 30
0.0
 10
124.2648305343213
 20
817.5928945266659
 30
0.0
  0
SPLINE
  5
58
330
41
100
AcDbEntity
  8
Layer 1
 62
    40
370
    13
100
AcDbSpline
210
0.0
220
0.0
230
1.0
 70
    11
 71
     3
 72
    35
 73
    31
 74
     0
 42
0.0000000001
 43
0.0000000001
 12
1.0
 22
0.0
 32
0.0
 13
1.0
 23
0.0
 33
0.0
 40
0.0
 40
0.0
 40
0.0
 40
0.0
 40
1.0
 40
1.0
 40
1.0
 40
2.0
 40
2.0
 40
2.0
 40
3.0
 40
3.0
 40
3.0
 40
4.0
 40
4.0
 40
4.0
 40
5.0
 40
5.0
 40
5.0
 40
6.0
 40
6.0
 40
6.0
 40
7.0
 40
7.0
 40
7.0
 40
8.0
 40
8.0
 40
8.0
 40
9.0
 40
9.0
 40
9.0
 40
10.0
 40
10.0
 40
10.0
 40
10.0
 10
124.6177019380321
 20
819.337435872449
 30
0.0
 10
125.0042345807581
 20
819.377702335721
 30
0.0
 10
125.3043912139404
 20
819.5742712692129
 30
0.0
 10
125.3043912139404
 20
820.0480690862998
 30
0.0
 10
125.3043912139404
 20
820.5410474584326
 30
0.0
 10
125.0099506402159
 20
820.7846151030017
 30
0.0
 10
124.39623639002
 20
820.7846151030017
 30
0.0
 10
124.39623639002
 20
820.7846151030017
 30
0.0
 10
123.4198699232677
 20
820.7846151030017
 30
0.0
 10
123.4198699232677
 20
820.7846151030017
 30
0.0
 10
123.4198699232677
 20
820.7846151030017
 30
0.0
 10
123.4198699232677
 20
818.1923186282221
 30
0.0
 10
123.4198699232677
 20
818.1923186282221
 30
0.0
 10
123.4198699232677
 20
818.1923186282221
 30
0.0
 10
123.8140239786037
 20
818.1923186282221
 30
0.0
 10
123.8140239786037
 20
818.1923186282221
 30
0.0
 10
123.8140239786037
 20
818.1923186282221
 30
0.0
 10
123.8140239786037
 20
819.3086650398566
 30
0.0
 10
123.8140239786037
 20
819.3086650398566
 30
0.0
 10
123.8140239786037
 20
819.3086650398566
 30
0.0
 10
124.2350435133776
 20
819.3086650398566
 30
0.0
 10
124.2350435133776
 20
819.3086650398566
 30
0.0
 10
124.2350435133776
 20
819.3086650398566
 30
0.0
 10
124.9399606677726
 20
818.1923186282221
 30
0.0
 10
124.9399606677726
 20
818.1923186282221
 30
0.0
 10
124.9399606677726
 20
818.1923186282221
 30
0.0
 10
125.3619328791223
 20
818.1923186282221
 30
0.0
 10
125.3619328791223
 20
818.1923186282221
 30
0.0
 10
125.3619328791223
 20
818.1923186282221
 30
0.0
 10
124.6177019380321
 20
819.337435872449
 30
0.0
 10
124.6177019380321
 20
819.337435872449
 30
0.0
  0
SPLINE
  5
59
330
41
100
AcDbEntity
  8
Layer 1
 62
    40
370
    13
100
AcDbSpline
210
0.0
220
0.0
230
1.0
 70
    11
 71
     3
 72
    20
 73
    16
 74
     0
 42
0.0000000001
 43
0.0000000001
 12
1.0
 22
0.0
 32
0.0
 13
1.0
 23
0.0
 33
0.0
 40
0.0
 40
0.0
 40
0.0
 40
0.0
 40
1.0
 40
1.0
 40
1.0
 40
2.0
 40
2.0
 40
2.0
 40
3.0
 40
3.0
 40
3.0
 40
4.0
 40
4.0
 40
4.0
 40
5.0
 40
5.0
 40
5.0
 40
5.0
 10
124.2177683114709
 20
819.6280022280953
 30
0.0
 10
124.2177683114709
 20
819.6280022280953
 30
0.0
 10
123.8140239786037
 20
819.6280022280953
 30
0.0
 10
123.8140239786037
 20
819.6280022280953
 30
0.0
 10
123.8140239786037
 20
819.6280022280953
 30
0.0
 10
123.8140239786037
 20
820.4633725616153
 30
0.0
 10
123.8140239786037
 20
820.4633725616153
 30
0.0
 10
123.8140239786037
 20
820.4633725616153
 30
0.0
 10
124.3299936121135
 20
820.4633725616153
 30
0.0
 10
124.3299936121135
 20
820.4633725616153
 30
0.0
 10
124.5995375713209
 20
820.4633725616153
 30
0.0
 10
124.9111898351783
 20
820.4201845568339
 30
0.0
 10
124.9111898351783
 20
820.0653442881979
 30
0.0
 10
124.9111898351783
 20
819.6490881363067
 30
0.0
 10
124.5697505503773
 20
819.6280022280953
 30
0.0
 10
124.2177683114709
 20
819.6280022280953
 30
0.0
  0
POLYLINE
  5
5A
330
41
100
AcDbEntity
  8
Layer 1
 62
    40
370
    13
100
AcDb2dPolyline
 66
     1
 10
0.0
 20
0.0
 30
0.0
  0
VERTEX
  5
5B
330
5A
100
AcDbEntity
  8
Layer 1
 62
    40
370
    13
100
AcDbVertex
100
AcDb2dVertex
 10
36.37613581532992
 20
799.7381666136143
 30
0.0
  0
VERTEX
  5
5C
330
5A
100
AcDbEntity
  8
Layer 1
 62
    40
370
    13
100
AcDbVertex
100
AcDb2dVertex
 10
28.83505816276721
 20
821.2871539535381
 30
0.0
  0
VERTEX
  5
5D
330
5A
100
AcDbEntity
  8
Layer 1
 62
    40
370
    13
100
AcDbVertex
100
AcDb2dVertex
 10
21.49926631241421
 20
821.2871539535381
 30
0.0
  0
VERTEX
  5
5E
330
5A
100
AcDbEntity
  8
Layer 1
 62
    40
370
    13
100
AcDbVertex
100
AcDb2dVertex
 10
21.49926631241421
 20
792.893396802363
 30
0.0
  0
VERTEX
  5
5F
330
5A
100
AcDbEntity
  8
Layer 1
 62
    40
370
    13
100
AcDbVertex
100
AcDb2dVertex
 10
26.75299066949033
 20
792.893396802363
 30
0.0
  0
VERTEX
  5
60
330
5A
100
AcDbEntity
  8
Layer 1
 62
    40
370
    13
100
AcDbVertex
100
AcDb2dVertex
 10
26.75299066949033
 20
814.347438727074
 30
0.0
  0
VERTEX
  5
61
330
5A
100
AcDbEntity
  8
Layer 1
 62
    40
370
    13
100
AcDbVertex
100
AcDb2dVertex
 10
34.26140522606264
 20
792.893396802363
 30
0.0
  0
VERTEX
  5
62
330
5A
100
AcDbEntity
  8
Layer 1
 62
    40
370
    13
100
AcDbVertex
100
AcDb2dVertex
 10
38.4620666855558
 20
792.893396802363
 30
0.0
  0
VERTEX
  5
63
330
5A
100
AcDbEntity
  8
Layer 1
 62
    40
370
    13
100
AcDbVertex
100
AcDb2dVertex
 10
45.95133996544975
 20
814.4184063274303
 30
0.0
  0
VERTEX
  5
64
330
5A
100
AcDbEntity
  8
Layer 1
 62
    40
370
    13
100
AcDbVertex
100
AcDb2dVertex
 10
45.95133996544975
 20
792.893396802363
 30
0.0
  0
VERTEX
  5
65
330
5A
100
AcDbEntity
  8
Layer 1
 62
    40
370
    13
100
AcDbVertex
100
AcDb2dVertex
 10
51.20500578650751
 20
792.893396802363
 30
0.0
  0
VERTEX
  5
66
330
5A
100
AcDbEntity
  8
Layer 1
 62
    40
370
    13
100
AcDbVertex
100
AcDb2dVertex
 10
51.20500578650751
 20
821.2871539535381
 30
0.0
  0
VERTEX
  5
67
330
5A
100
AcDbEntity
  8
Layer 1
 62
    40
370
    13
100
AcDbVertex
100
AcDb2dVertex
 10
43.87015051238459
 20
821.2871539535381
 30
0.0
  0
VERTEX
  5
68
330
5A
100
AcDbEntity
  8
Layer 1
 62
    40
370
    13
100
AcDbVertex
100
AcDb2dVertex
 10
36.37613581532992
 20
799.7381666136143
 30
0.0
  0
SEQEND
  5
69
330
5A
100
AcDbEntity
  8
Layer 1
 62
    40
370
    13
  0
POLYLINE
  5
6A
330
41
100
AcDbEntity
  8
Layer 1
 62
    40
370
    13
100
AcDb2dPolyline
 66
     1
 10
0.0
 20
0.0
 30
0.0
  0
VERTEX
  5
6B
330
6A
100
AcDbEntity
  8
Layer 1
 62
    40
370
    13
100
AcDbVertex
100
AcDb2dVertex
 10
55.69624002107607
 20
816.5992972468831
 30
0.0
  0
VERTEX
  5
6C
330
6A
100
AcDbEntity
  8
Layer 1
 62
    40
370
    13
100
AcDbVertex
100
AcDb2dVertex
 10
60.82335097917477
 20
816.5992972468831
 30
0.0
  0
VERTEX
  5
6D
330
6A
100
AcDbEntity
  8
Layer 1
 62
    40
370
    13
100
AcDbVertex
100
AcDb2dVertex
 10
60.82335097917477
 20
821.2871539535381
 30
0.0
  0
VERTEX
  5
6E
330
6A
100
AcDbEntity
  8
Layer 1
 62
    40
370
    13
100
AcDbVertex
100
AcDb2dVertex
 10
55.69624002107607
 20
821.2871539535381
 30
0.0
  0
VERTEX
  5
6F
330
6A
100
AcDbEntity
  8
Layer 1
 62
    40
370
    13
100
AcDbVertex
100
AcDb2dVertex
 10
55.69624002107607
 20
816.5992972468831
 30
0.0
  0
SEQEND
  5
70
330
6A
100
AcDbEntity
  8
Layer 1
 62
    40
370
    13
  0
POLYLINE
  5
71
330
41
100
AcDbEntity
  8
Layer 1
 62
    40
370
    13
100
AcDb2dPolyline
 66
     1
 10
0.0
 20
0.0
 30
0.0
  0
VERTEX
  5
72
330
71
100
AcDbEntity
  8
Layer 1
 62
    40
370
    13
100
AcDbVertex
100
AcDb2dVertex
 10
55.69624002107607
 20
792.893396802363
 30
0.0
  0
VERTEX
  5
73
330
71
100
AcDbEntity
  8
Layer 1
 62
    40
370
    13
100
AcDbVertex
100
AcDb2dVertex
 10
60.82335097917477
 20
792.893396802363
 30
0.0
  0
VERTEX
  5
74
330
71
100
AcDbEntity
  8
Layer 1
 62
    40
370
    13
100
AcDbVertex
100
AcDb2dVertex
 10
60.82335097917477
 20
814.1594576340824
 30
0.0
  0
VERTEX
  5
75
330
71
100
AcDbEntity
  8
Layer 1
 62
    40
370
    13
100
AcDbVertex
100
AcDb2dVertex
 10
55.69624002107607
 20
814.1594576340824
 30
0.0
  0
VERTEX
  5
76
330
71
100
AcDbEntity
  8
Layer 1
 62
    40
370
    13
100
AcDbVertex
100
AcDb2dVertex
 10
55.69624002107607
 20
792.893396802363
 30
0.0
  0
SEQEND
  5
77
330
71
100
AcDbEntity
  8
Layer 1
 62
    40
370
    13
  0
POLYLINE
  5
78
330
41
100
AcDbEntity
  8
Layer 1
 62
    40
370
    13
100
AcDb2dPolyline
 66
     1
 10
0.0
 20
0.0
 30
0.0
  0
VERTEX
  5
79
330
78
100
AcDbEntity
  8
Layer 1
 62
    40
370
    13
100
AcDbVertex
100
AcDb2dVertex
 10
78.93609135359242
 20
821.2871539535381
 30
0.0
  0
VERTEX
  5
7A
330
78
100
AcDbEntity
  8
Layer 1
 62
    40
370
    13
100
AcDbVertex
100
AcDb2dVertex
 10
63.05123168412419
 20
821.2871539535381
 30
0.0
  0
VERTEX
  5
7B
330
78
100
AcDbEntity
  8
Layer 1
 62
    40
370
    13
100
AcDbVertex
100
AcDb2dVertex
 10
63.05123168412419
 20
816.4093990994296
 30
0.0
  0
VERTEX
  5
7C
330
78
100
AcDbEntity
  8
Layer 1
 62
    40
370
    13
100
AcDbVertex
100
AcDb2dVertex
 10
68.36536520796788
 20
816.4093990994296
 30
0.0
  0
VERTEX
  5
7D
330
78
100
AcDbEntity
  8
Layer 1
 62
    40
370
    13
100
AcDbVertex
100
AcDb2dVertex
 10
68.36536520796788
 20
792.893396802363
 30
0.0
  0
VERTEX
  5
7E
330
78
100
AcDbEntity
  8
Layer 1
 62
    40
370
    13
100
AcDbVertex
100
AcDb2dVertex
 10
73.61908956504656
 20
792.893396802363
 30
0.0
  0
VERTEX
  5
7F
330
78
100
AcDbEntity
  8
Layer 1
 62
    40
370
    13
100
AcDbVertex
100
AcDb2dVertex
 10
73.61908956504656
 20
816.4093990994296
 30
0.0
  0
VERTEX
  5
80
330
78
100
AcDbEntity
  8
Layer 1
 62
    40
370
    13
100
AcDbVertex
100
AcDb2dVertex
 10
78.93609135359242
 20
816.4093990994296
 30
0.0
  0
VERTEX
  5
81
330
78
100
AcDbEntity
  8
Layer 1
 62
    40
370
    13
100
AcDbVertex
100
AcDb2dVertex
 10
78.93609135359242
 20
821.2871539535381
 30
0.0
  0
SEQEND
  5
82
330
78
100
AcDbEntity
  8
Layer 1
 62
    40
370
    13
  0
ENDBLK
  5
44
330
41
100
AcDbEntity
  8
0
100
AcDbBlockEnd
  0
BLOCK
  5
85
330
83
100
AcDbEntity
  8
0
100
AcDbBlockBegin
  2
block 3
 70
     0
 10
0.0
 20
0.0
 30
0.0
  3
block 3
  1

  0
SPLINE
  5
87
330
83
100
AcDbEntity
  8
Layer 1
 62
    40
370
    13
100
AcDbSpline
210
0.0
220
0.0
230
1.0
 70
    11
 71
     3
 72
    26
 73
    22
 74
     0
 42
0.0000000001
 43
0.0000000001
 12
1.0
 22
0.0
 32
0.0
 13
1.0
 23
0.0
 33
0.0
 40
0.0
 40
0.0
 40
0.0
 40
0.0
 40
1.0
 40
1.0
 40
1.0
 40
2.0
 40
2.0
 40
2.0
 40
3.0
 40
3.0
 40
3.0
 40
4.0
 40
4.0
 40
4.0
 40
5.0
 40
5.0
 40
5.0
 40
6.0
 40
6.0
 40
6.0
 40
7.0
 40
7.0
 40
7.0
 40
7.0
 10
32.93718208453717
 20
781.4177087040829
 30
0.0
 10
38.55646670458726
 20
781.4177087040829
 30
0.0
 10
41.80646877183318
 20
778.2477720472377
 30
0.0
 10
41.80646877183318
 20
773.3915598079848
 30
0.0
 10
41.80646877183318
 20
770.2216231511433
 30
0.0
 10
39.71986613740567
 20
768.2134519391518
 30
0.0
 10
38.2754207741828
 20
767.491229257539
 30
0.0
 10
40.04176176699183
 20
766.6889411655252
 30
0.0
 10
42.24764552304641
 20
764.8833844614979
 30
0.0
 10
42.24764552304641
 20
761.0712905334444
 30
0.0
 10
42.24764552304641
 20
755.7314178558302
 30
0.0
 10
38.55646670458726
 20
752.8425271293818
 30
0.0
 10
33.45842424615093
 20
752.8425271293818
 30
0.0
 10
33.45842424615093
 20
752.8425271293818
 30
0.0
 10
21.49926631241421
 20
752.8425271293818
 30
0.0
 10
21.49926631241421
 20
752.8425271293818
 30
0.0
 10
21.49926631241421
 20
752.8425271293818
 30
0.0
 10
21.49926631241421
 20
781.4177087040829
 30
0.0
 10
21.49926631241421
 20
781.4177087040829
 30
0.0
 10
21.49926631241421
 20
781.4177087040829
 30
0.0
 10
32.93718208453717
 20
781.4177087040829
 30
0.0
 10
32.93718208453717
 20
781.4177087040829
 30
0.0
  0
SPLINE
  5
88
330
83
100
AcDbEntity
  8
Layer 1
 62
    40
370
    13
100
AcDbSpline
210
0.0
220
0.0
230
1.0
 70
    11
 71
     3
 72
    20
 73
    16
 74
     0
 42
0.0000000001
 43
0.0000000001
 12
1.0
 22
0.0
 32
0.0
 13
1.0
 23
0.0
 33
0.0
 40
0.0
 40
0.0
 40
0.0
 40
0.0
 40
1.0
 40
1.0
 40
1.0
 40
2.0
 40
2.0
 40
2.0
 40
3.0
 40
3.0
 40
3.0
 40
4.0
 40
4.0
 40
4.0
 40
5.0
 40
5.0
 40
5.0
 40
5.0
 10
27.07770123327362
 20
776.4422153432108
 30
0.0
 10
27.07770123327362
 20
776.4422153432108
 30
0.0
 10
27.07770123327362
 20
769.8196621111521
 30
0.0
 10
27.07770123327362
 20
769.8196621111521
 30
0.0
 10
27.07770123327362
 20
769.8196621111521
 30
0.0
 10
32.57607074373249
 20
769.8196621111521
 30
0.0
 10
32.57607074373249
 20
769.8196621111521
 30
0.0
 10
34.94371930855999
 20
769.8196621111521
 30
0.0
 10
36.22803385097378
 20
771.1431923647834
 30
0.0
 10
36.22803385097378
 20
773.151363576771
 30
0.0
 10
36.22803385097378
 20
775.1170511016109
 30
0.0
 10
34.94371930855999
 20
776.4422153432108
 30
0.0
 10
32.57607074373249
 20
776.4422153432108
 30
0.0
 10
32.57607074373249
 20
776.4422153432108
 30
0.0
 10
27.07770123327362
 20
776.4422153432108
 30
0.0
 10
27.07770123327362
 20
776.4422153432108
 30
0.0
  0
SPLINE
  5
89
330
83
100
AcDbEntity
  8
Layer 1
 62
    40
370
    13
100
AcDbSpline
210
0.0
220
0.0
230
1.0
 70
    11
 71
     3
 72
    20
 73
    16
 74
     0
 42
0.0000000001
 43
0.0000000001
 12
1.0
 22
0.0
 32
0.0
 13
1.0
 23
0.0
 33
0.0
 40
0.0
 40
0.0
 40
0.0
 40
0.0
 40
1.0
 40
1.0
 40
1.0
 40
2.0
 40
2.0
 40
2.0
 40
3.0
 40
3.0
 40
3.0
 40
4.0
 40
4.0
 40
4.0
 40
5.0
 40
5.0
 40
5.0
 40
5.0
 10
27.07770123327362
 20
764.8425347623114
 30
0.0
 10
27.07770123327362
 20
764.8425347623114
 30
0.0
 10
27.07770123327362
 20
757.8196544782228
 30
0.0
 10
27.07770123327362
 20
757.8196544782228
 30
0.0
 10
27.07770123327362
 20
757.8196544782228
 30
0.0
 10
32.93718208453717
 20
757.8196544782228
 30
0.0
 10
32.93718208453717
 20
757.8196544782228
 30
0.0
 10
35.42574575895556
 20
757.8196544782228
 30
0.0
 10
36.66921060218668
 20
759.345799239818
 30
0.0
 10
36.66921060218668
 20
761.3523364638444
 30
0.0
 10
36.66921060218668
 20
763.3163900007158
 30
0.0
 10
35.42574575895556
 20
764.8425347623114
 30
0.0
 10
32.93718208453717
 20
764.8425347623114
 30
0.0
 10
32.93718208453717
 20
764.8425347623114
 30
0.0
 10
27.07770123327362
 20
764.8425347623114
 30
0.0
 10
27.07770123327362
 20
764.8425347623114
 30
0.0
  0
SPLINE
  5
8A
330
83
100
AcDbEntity
  8
Layer 1
 62
    40
370
    13
100
AcDbSpline
210
0.0
220
0.0
230
1.0
 70
    11
 71
     3
 72
    29
 73
    25
 74
     0
 42
0.0000000001
 43
0.0000000001
 12
1.0
 22
0.0
 32
0.0
 13
1.0
 23
0.0
 33
0.0
 40
0.0
 40
0.0
 40
0.0
 40
0.0
 40
1.0
 40
1.0
 40
1.0
 40
2.0
 40
2.0
 40
2.0
 40
3.0
 40
3.0
 40
3.0
 40
4.0
 40
4.0
 40
4.0
 40
5.0
 40
5.0
 40
5.0
 40
6.0
 40
6.0
 40
6.0
 40
7.0
 40
7.0
 40
7.0
 40
8.0
 40
8.0
 40
8.0
 40
8.0
 10
64.97968612615728
 20
778.6497330872328
 30
0.0
 10
67.82936114138418
 20
775.8392737832202
 30
0.0
 10
67.86857685260686
 20
772.5892717159743
 30
0.0
 10
67.86857685260686
 20
767.1301179167342
 30
0.0
 10
67.86857685260686
 20
761.6725981054664
 30
0.0
 10
67.82936114138418
 20
758.4209620502412
 30
0.0
 10
64.97968612615728
 20
755.6105027462393
 30
0.0
 10
63.01236461334847
 20
753.6856649205862
 30
0.0
 10
60.60386634933509
 20
752.6006969101996
 30
0.0
 10
57.31301458289848
 20
752.6006969101996
 30
0.0
 10
54.02216281646572
 20
752.6006969101996
 30
0.0
 10
51.61366455244787
 20
753.6856649205862
 30
0.0
 10
49.64797702760707
 20
755.6105027462393
 30
0.0
 10
46.79830201238465
 20
758.4601777614662
 30
0.0
 10
46.75745231319781
 20
761.6725981054664
 30
0.0
 10
46.75745231319781
 20
767.1301179167342
 30
0.0
 10
46.75745231319781
 20
772.5892717159743
 30
0.0
 10
46.79830201238465
 20
775.8000580720023
 30
0.0
 10
49.64797702760707
 20
778.6497330872328
 30
0.0
 10
51.61366455244787
 20
780.5762049008513
 30
0.0
 10
54.02216281646572
 20
781.6595389232652
 30
0.0
 10
57.31301458289848
 20
781.6595389232652
 30
0.0
 10
60.60386634933509
 20
781.6595389232652
 30
0.0
 10
63.01236461334847
 20
780.5762049008513
 30
0.0
 10
64.97968612615728
 20
778.6497330872328
 30
0.0
  0
SPLINE
  5
8B
330
83
100
AcDbEntity
  8
Layer 1
 62
    40
370
    13
100
AcDbSpline
210
0.0
220
0.0
230
1.0
 70
    11
 71
     3
 72
    29
 73
    25
 74
     0
 42
0.0000000001
 43
0.0000000001
 12
1.0
 22
0.0
 32
0.0
 13
1.0
 23
0.0
 33
0.0
 40
0.0
 40
0.0
 40
0.0
 40
0.0
 40
1.0
 40
1.0
 40
1.0
 40
2.0
 40
2.0
 40
2.0
 40
3.0
 40
3.0
 40
3.0
 40
4.0
 40
4.0
 40
4.0
 40
5.0
 40
5.0
 40
5.0
 40
6.0
 40
6.0
 40
6.0
 40
7.0
 40
7.0
 40
7.0
 40
8.0
 40
8.0
 40
8.0
 40
8.0
 10
53.74111688606158
 20
775.1579008007942
 30
0.0
 10
52.65778286364755
 20
773.9536516687887
 30
0.0
 10
52.3358872340617
 20
772.5892717159743
 30
0.0
 10
52.3358872340617
 20
767.1301179167342
 30
0.0
 10
52.3358872340617
 20
761.6725981054664
 30
0.0
 10
52.65778286364755
 20
760.3490678518313
 30
0.0
 10
53.74111688606158
 20
759.143184731854
 30
0.0
 10
54.5434049780798
 20
758.221615518214
 30
0.0
 10
55.78850380927059
 20
757.5778242590407
 30
0.0
 10
57.31301458289848
 20
757.5778242590407
 30
0.0
 10
58.83915934449342
 20
757.5778242590407
 30
0.0
 10
60.0826241877207
 20
758.221615518214
 30
0.0
 10
60.88491227973475
 20
759.143184731854
 30
0.0
 10
61.96824630215294
 20
760.3490678518313
 30
0.0
 10
62.29014193173719
 20
761.6725981054664
 30
0.0
 10
62.29014193173719
 20
767.1301179167342
 30
0.0
 10
62.29014193173719
 20
772.5892717159743
 30
0.0
 10
61.96824630215294
 20
773.9536516687887
 30
0.0
 10
60.88491227973475
 20
775.1579008007942
 30
0.0
 10
60.0826241877207
 20
776.0811040024058
 30
0.0
 10
58.83915934449342
 20
776.6824115744247
 30
0.0
 10
57.31301458289848
 20
776.6824115744247
 30
0.0
 10
55.78850380927059
 20
776.6824115744247
 30
0.0
 10
54.5434049780798
 20
776.0811040024058
 30
0.0
 10
53.74111688606158
 20
775.1579008007942
 30
0.0
  0
POLYLINE
  5
8C
330
83
100
AcDbEntity
  8
Layer 1
 62
    40
370
    13
100
AcDb2dPolyline
 66
     1
 10
0.0
 20
0.0
 30
0.0
  0
VERTEX
  5
8D
330
8C
100
AcDbEntity
  8
Layer 1
 62
    40
370
    13
100
AcDbVertex
100
AcDb2dVertex
 10
97.70356315020437
 20
752.8425271293818
 30
0.0
  0
VERTEX
  5
8E
330
8C
100
AcDbEntity
  8
Layer 1
 62
    40
370
    13
100
AcDbVertex
100
AcDb2dVertex
 10
93.00748173176372
 20
752.8425271293818
 30
0.0
  0
VERTEX
  5
8F
330
8C
100
AcDbEntity
  8
Layer 1
 62
    40
370
    13
100
AcDbVertex
100
AcDb2dVertex
 10
87.74930845252247
 20
770.1399237527702
 30
0.0
  0
VERTEX
  5
90
330
8C
100
AcDbEntity
  8
Layer 1
 62
    40
370
    13
100
AcDbVertex
100
AcDb2dVertex
 10
82.53198487246775
 20
752.8425271293818
 30
0.0
  0
VERTEX
  5
91
330
8C
100
AcDbEntity
  8
Layer 1
 62
    40
370
    13
100
AcDbVertex
100
AcDb2dVertex
 10
77.87675315321296
 20
752.8425271293818
 30
0.0
  0
VERTEX
  5
92
330
8C
100
AcDbEntity
  8
Layer 1
 62
    40
370
    13
100
AcDbVertex
100
AcDb2dVertex
 10
70.21008160995417
 20
781.4177087040829
 30
0.0
  0
VERTEX
  5
93
330
8C
100
AcDbEntity
  8
Layer 1
 62
    40
370
    13
100
AcDbVertex
100
AcDb2dVertex
 10
76.03034674999729
 20
781.4177087040829
 30
0.0
  0
VERTEX
  5
94
330
8C
100
AcDbEntity
  8
Layer 1
 62
    40
370
    13
100
AcDbVertex
100
AcDb2dVertex
 10
80.44538223804055
 20
763.4373051103067
 30
0.0
  0
VERTEX
  5
95
330
8C
100
AcDbEntity
  8
Layer 1
 62
    40
370
    13
100
AcDbVertex
100
AcDb2dVertex
 10
85.70192152931153
 20
781.4177087040829
 30
0.0
  0
VERTEX
  5
96
330
8C
100
AcDbEntity
  8
Layer 1
 62
    40
370
    13
100
AcDbVertex
100
AcDb2dVertex
 10
89.83591108695032
 20
781.4177087040829
 30
0.0
  0
VERTEX
  5
97
330
8C
100
AcDbEntity
  8
Layer 1
 62
    40
370
    13
100
AcDbVertex
100
AcDb2dVertex
 10
95.09408436619573
 20
763.4373051103067
 30
0.0
  0
VERTEX
  5
98
330
8C
100
AcDbEntity
  8
Layer 1
 62
    40
370
    13
100
AcDbVertex
100
AcDb2dVertex
 10
99.50911985423609
 20
781.4177087040829
 30
0.0
  0
VERTEX
  5
99
330
8C
100
AcDbEntity
  8
Layer 1
 62
    40
370
    13
100
AcDbVertex
100
AcDb2dVertex
 10
105.3293849942773
 20
781.4177087040829
 30
0.0
  0
VERTEX
  5
9A
330
8C
100
AcDbEntity
  8
Layer 1
 62
    40
370
    13
100
AcDbVertex
100
AcDb2dVertex
 10
97.70356315020437
 20
752.8425271293818
 30
0.0
  0
SEQEND
  5
9B
330
8C
100
AcDbEntity
  8
Layer 1
 62
    40
370
    13
  0
POLYLINE
  5
9C
330
83
100
AcDbEntity
  8
Layer 1
 62
    40
370
    13
100
AcDb2dPolyline
 66
     1
 10
0.0
 20
0.0
 30
0.0
  0
VERTEX
  5
9D
330
9C
100
AcDbEntity
  8
Layer 1
 62
    40
370
    13
100
AcDbVertex
100
AcDb2dVertex
 10
134.80652792701
 20
752.8425271293818
 30
0.0
  0
VERTEX
  5
9E
330
9C
100
AcDbEntity
  8
Layer 1
 62
    40
370
    13
100
AcDbVertex
100
AcDb2dVertex
 10
129.2280930061506
 20
752.8425271293818
 30
0.0
  0
VERTEX
  5
9F
330
9C
100
AcDbEntity
  8
Layer 1
 62
    40
370
    13
100
AcDbVertex
100
AcDb2dVertex
 10
129.2280930061506
 20
769.4585507703474
 30
0.0
  0
VERTEX
  5
A0
330
9C
100
AcDbEntity
  8
Layer 1
 62
    40
370
    13
100
AcDbVertex
100
AcDb2dVertex
 10
123.7705731948776
 20
759.3033155526703
 30
0.0
  0
VERTEX
  5
A1
330
9C
100
AcDbEntity
  8
Layer 1
 62
    40
370
    13
100
AcDbVertex
100
AcDb2dVertex
 10
119.9976949780457
 20
759.3033155526703
 30
0.0
  0
VERTEX
  5
A2
330
9C
100
AcDbEntity
  8
Layer 1
 62
    40
370
    13
100
AcDbVertex
100
AcDb2dVertex
 10
114.4993254675865
 20
769.4585507703474
 30
0.0
  0
VERTEX
  5
A3
330
9C
100
AcDbEntity
  8
Layer 1
 62
    40
370
    13
100
AcDbVertex
100
AcDb2dVertex
 10
114.4993254675865
 20
752.8425271293818
 30
0.0
  0
VERTEX
  5
A4
330
9C
100
AcDbEntity
  8
Layer 1
 62
    40
370
    13
100
AcDbVertex
100
AcDb2dVertex
 10
108.920890546723
 20
752.8425271293818
 30
0.0
  0
VERTEX
  5
A5
330
9C
100
AcDbEntity
  8
Layer 1
 62
    40
370
    13
100
AcDbVertex
100
AcDb2dVertex
 10
108.920890546723
 20
781.4177087040829
 30
0.0
  0
VERTEX
  5
A6
330
9C
100
AcDbEntity
  8
Layer 1
 62
    40
370
    13
100
AcDbVertex
100
AcDb2dVertex
 10
114.4192600571818
 20
781.4177087040829
 30
0.0
  0
VERTEX
  5
A7
330
9C
100
AcDbEntity
  8
Layer 1
 62
    40
370
    13
100
AcDbVertex
100
AcDb2dVertex
 10
121.8833170924777
 20
766.6088757551205
 30
0.0
  0
VERTEX
  5
A8
330
9C
100
AcDbEntity
  8
Layer 1
 62
    40
370
    13
100
AcDbVertex
100
AcDb2dVertex
 10
129.308158416555
 20
781.4177087040829
 30
0.0
  0
VERTEX
  5
A9
330
9C
100
AcDbEntity
  8
Layer 1
 62
    40
370
    13
100
AcDbVertex
100
AcDb2dVertex
 10
134.80652792701
 20
781.4177087040829
 30
0.0
  0
VERTEX
  5
AA
330
9C
100
AcDbEntity
  8
Layer 1
 62
    40
370
    13
100
AcDbVertex
100
AcDb2dVertex
 10
134.80652792701
 20
752.8425271293818
 30
0.0
  0
SEQEND
  5
AB
330
9C
100
AcDbEntity
  8
Layer 1
 62
    40
370
    13
  0
POLYLINE
  5
AC
330
83
100
AcDbEntity
  8
Layer 1
 62
    40
370
    13
100
AcDb2dPolyline
 66
     1
 10
0.0
 20
0.0
 30
0.0
  0
VERTEX
  5
AD
330
AC
100
AcDbEntity
  8
Layer 1
 62
    40
370
    13
100
AcDbVertex
100
AcDb2dVertex
 10
163.5614481781308
 20
752.8425271293818
 30
0.0
  0
VERTEX
  5
AE
330
AC
100
AcDbEntity
  8
Layer 1
 62
    40
370
    13
100
AcDbVertex
100
AcDb2dVertex
 10
157.7019673268672
 20
752.8425271293818
 30
0.0
  0
VERTEX
  5
AF
330
AC
100
AcDbEntity
  8
Layer 1
 62
    40
370
    13
100
AcDbVertex
100
AcDb2dVertex
 10
156.0156917444632
 20
757.8980859006658
 30
0.0
  0
VERTEX
  5
B0
330
AC
100
AcDbEntity
  8
Layer 1
 62
    40
370
    13
100
AcDbVertex
100
AcDb2dVertex
 10
145.9029402139396
 20
757.8980859006658
 30
0.0
  0
VERTEX
  5
B1
330
AC
100
AcDbEntity
  8
Layer 1
 62
    40
370
    13
100
AcDbVertex
100
AcDb2dVertex
 10
144.1758149323449
 20
752.8425271293818
 30
0.0
  0
VERTEX
  5
B2
330
AC
100
AcDbEntity
  8
Layer 1
 62
    40
370
    13
100
AcDbVertex
100
AcDb2dVertex
 10
138.316334081083
 20
752.8425271293818
 30
0.0
  0
VERTEX
  5
B3
330
AC
100
AcDbEntity
  8
Layer 1
 62
    40
370
    13
100
AcDbVertex
100
AcDb2dVertex
 10
148.7509812411988
 20
781.4177087040829
 30
0.0
  0
VERTEX
  5
B4
330
AC
100
AcDbEntity
  8
Layer 1
 62
    40
370
    13
100
AcDbVertex
100
AcDb2dVertex
 10
153.1268010180172
 20
781.4177087040829
 30
0.0
  0
VERTEX
  5
B5
330
AC
100
AcDbEntity
  8
Layer 1
 62
    40
370
    13
100
AcDbVertex
100
AcDb2dVertex
 10
163.5614481781308
 20
752.8425271293818
 30
0.0
  0
SEQEND
  5
B6
330
AC
100
AcDbEntity
  8
Layer 1
 62
    40
370
    13
  0
POLYLINE
  5
B7
330
83
100
AcDbEntity
  8
Layer 1
 62
    40
370
    13
100
AcDb2dPolyline
 66
     1
 10
0.0
 20
0.0
 30
0.0
  0
VERTEX
  5
B8
330
B7
100
AcDbEntity
  8
Layer 1
 62
    40
370
    13
100
AcDbVertex
100
AcDb2dVertex
 10
147.4274509875627
 20
762.5941673191027
 30
0.0
  0
VERTEX
  5
B9
330
B7
100
AcDbEntity
  8
Layer 1
 62
    40
370
    13
100
AcDbVertex
100
AcDb2dVertex
 10
154.4503312716495
 20
762.5941673191027
 30
0.0
  0
VERTEX
  5
BA
330
B7
100
AcDbEntity
  8
Layer 1
 62
    40
370
    13
100
AcDbVertex
100
AcDb2dVertex
 10
150.9584989852176
 20
772.950383056779
 30
0.0
  0
VERTEX
  5
BB
330
B7
100
AcDbEntity
  8
Layer 1
 62
    40
370
    13
100
AcDbVertex
100
AcDb2dVertex
 10
147.4274509875627
 20
762.5941673191027
 30
0.0
  0
SEQEND
  5
BC
330
B7
100
AcDbEntity
  8
Layer 1
 62
    40
370
    13
  0
SPLINE
  5
BD
330
83
100
AcDbEntity
  8
Layer 1
 62
    40
370
    13
100
AcDbSpline
210
0.0
220
0.0
230
1.0
 70
    11
 71
     3
 72
    47
 73
    43
 74
     0
 42
0.0000000001
 43
0.0000000001
 12
1.0
 22
0.0
 32
0.0
 13
1.0
 23
0.0
 33
0.0
 40
0.0
 40
0.0
 40
0.0
 40
0.0
 40
1.0
 40
1.0
 40
1.0
 40
2.0
 40
2.0
 40
2.0
 40
3.0
 40
3.0
 40
3.0
 40
4.0
 40
4.0
 40
4.0
 40
5.0
 40
5.0
 40
5.0
 40
6.0
 40
6.0
 40
6.0
 40
7.0
 40
7.0
 40
7.0
 40
8.0
 40
8.0
 40
8.0
 40
9.0
 40
9.0
 40
9.0
 40
10.0
 40
10.0
 40
10.0
 40
11.0
 40
11.0
 40
11.0
 40
12.0
 40
12.0
 40
12.0
 40
13.0
 40
13.0
 40
13.0
 40
14.0
 40
14.0
 40
14.0
 40
14.0
 10
186.7330315444872
 20
772.6284874271925
 30
0.0
 10
186.7330315444872
 20
772.6284874271925
 30
0.0
 10
181.0745312132231
 20
772.6284874271925
 30
0.0
 10
181.0745312132231
 20
772.6284874271925
 30
0.0
 10
180.512439352419
 20
774.9569202808018
 30
0.0
 10
179.0271442900099
 20
776.6824115744247
 30
0.0
 10
176.2575346851874
 20
776.6824115744247
 30
0.0
 10
174.7330239115601
 20
776.6824115744247
 30
0.0
 10
173.4879250803645
 20
776.1203197136241
 30
0.0
 10
172.6856369883466
 20
775.1971165120156
 30
0.0
 10
171.6415186771508
 20
773.9928673800065
 30
0.0
 10
171.2804073363464
 20
772.5892717159743
 30
0.0
 10
171.2804073363464
 20
767.1301179167342
 30
0.0
 10
171.2804073363464
 20
761.6725981054664
 30
0.0
 10
171.6415186771508
 20
760.267368453462
 30
0.0
 10
172.6856369883466
 20
759.064753309418
 30
0.0
 10
173.4879250803645
 20
758.1399161198409
 30
0.0
 10
174.7330239115601
 20
757.5778242590407
 30
0.0
 10
176.2575346851874
 20
757.5778242590407
 30
0.0
 10
179.0271442900099
 20
757.5778242590407
 30
0.0
 10
180.512439352419
 20
759.3033155526703
 30
0.0
 10
181.0745312132231
 20
761.6333823942447
 30
0.0
 10
181.0745312132231
 20
761.6333823942447
 30
0.0
 10
186.7330315444872
 20
761.6333823942447
 30
0.0
 10
186.7330315444872
 20
761.6333823942447
 30
0.0
 10
185.7297629324737
 20
755.6529864333909
 30
0.0
 10
181.5957733748372
 20
752.6006969101996
 30
0.0
 10
176.2575346851874
 20
752.6006969101996
 30
0.0
 10
172.9666829187511
 20
752.6006969101996
 30
0.0
 10
170.5581846547371
 20
753.6856649205862
 30
0.0
 10
168.5924971298963
 20
755.6105027462393
 30
0.0
 10
165.7428221146732
 20
758.4601777614662
 30
0.0
 10
165.701972415487
 20
761.6725981054664
 30
0.0
 10
165.701972415487
 20
767.1301179167342
 30
0.0
 10
165.701972415487
 20
772.5892717159743
 30
0.0
 10
165.7428221146732
 20
775.8000580720023
 30
0.0
 10
168.5924971298963
 20
778.6497330872328
 30
0.0
 10
170.5581846547371
 20
780.5762049008513
 30
0.0
 10
172.9666829187511
 20
781.6595389232652
 30
0.0
 10
176.2575346851874
 20
781.6595389232652
 30
0.0
 10
181.5957733748372
 20
781.6595389232652
 30
0.0
 10
185.7297629324737
 20
778.6088833880463
 30
0.0
 10
186.7330315444872
 20
772.6284874271925
 30
0.0
  0
SPLINE
  5
BE
330
83
100
AcDbEntity
  8
Layer 1
 62
    40
370
    13
100
AcDbSpline
210
0.0
220
0.0
230
1.0
 70
    11
 71
     3
 72
    17
 73
    13
 74
     0
 42
0.0000000001
 43
0.0000000001
 12
1.0
 22
0.0
 32
0.0
 13
1.0
 23
0.0
 33
0.0
 40
0.0
 40
0.0
 40
0.0
 40
0.0
 40
1.0
 40
1.0
 40
1.0
 40
2.0
 40
2.0
 40
2.0
 40
3.0
 40
3.0
 40
3.0
 40
4.0
 40
4.0
 40
4.0
 40
4.0
 10
188.9439371540986
 20
779.7264262141342
 30
0.0
 10
188.9439371540986
 20
780.9601349686644
 30
0.0
 10
189.9154836106307
 20
781.959097258646
 30
0.0
 10
191.1139331750788
 20
781.959097258646
 30
0.0
 10
192.3123827395262
 20
781.959097258646
 30
0.0
 10
193.2839291960628
 20
780.9601349686644
 30
0.0
 10
193.2839291960628
 20
779.7264262141342
 30
0.0
 10
193.2839291960628
 20
778.4933623674807
 30
0.0
 10
192.3123827395262
 20
777.4944000774849
 30
0.0
 10
191.1139331750788
 20
777.4944000774849
 30
0.0
 10
189.9154836106307
 20
777.4944000774849
 30
0.0
 10
188.9439371540986
 20
778.4933623674807
 30
0.0
 10
188.9439371540986
 20
779.7264262141342
 30
0.0
  0
SPLINE
  5
BF
330
83
100
AcDbEntity
  8
Layer 1
 62
    40
370
    13
100
AcDbSpline
210
0.0
220
0.0
230
1.0
 70
    11
 71
     3
 72
    17
 73
    13
 74
     0
 42
0.0000000001
 43
0.0000000001
 12
1.0
 22
0.0
 32
0.0
 13
1.0
 23
0.0
 33
0.0
 40
0.0
 40
0.0
 40
0.0
 40
0.0
 40
1.0
 40
1.0
 40
1.0
 40
2.0
 40
2.0
 40
2.0
 40
3.0
 40
3.0
 40
3.0
 40
4.0
 40
4.0
 40
4.0
 40
4.0
 10
192.7686961720188
 20
779.7264262141342
 30
0.0
 10
192.7686961720188
 20
780.7195843333039
 30
0.0
 10
192.0491249900187
 20
781.4592936597186
 30
0.0
 10
191.1139331750788
 20
781.4592936597186
 30
0.0
 10
190.1787413601424
 20
781.4592936597186
 30
0.0
 10
189.4591701781464
 20
780.7195843333039
 30
0.0
 10
189.4591701781464
 20
779.7264262141342
 30
0.0
 10
189.4591701781464
 20
778.7339130028375
 30
0.0
 10
190.1787413601424
 20
777.9935587685568
 30
0.0
 10
191.1139331750788
 20
777.9935587685568
 30
0.0
 10
192.0491249900187
 20
777.9935587685568
 30
0.0
 10
192.7686961720188
 20
778.7339130028375
 30
0.0
 10
192.7686961720188
 20
779.7264262141342
 30
0.0
  0
SPLINE
  5
C0
330
83
100
AcDbEntity
  8
Layer 1
 62
    40
370
    13
100
AcDbSpline
210
0.0
220
0.0
230
1.0
 70
    11
 71
     3
 72
    35
 73
    31
 74
     0
 42
0.0000000001
 43
0.0000000001
 12
1.0
 22
0.0
 32
0.0
 13
1.0
 23
0.0
 33
0.0
 40
0.0
 40
0.0
 40
0.0
 40
0.0
 40
1.0
 40
1.0
 40
1.0
 40
2.0
 40
2.0
 40
2.0
 40
3.0
 40
3.0
 40
3.0
 40
4.0
 40
4.0
 40
4.0
 40
5.0
 40
5.0
 40
5.0
 40
6.0
 40
6.0
 40
6.0
 40
7.0
 40
7.0
 40
7.0
 40
8.0
 40
8.0
 40
8.0
 40
9.0
 40
9.0
 40
9.0
 40
10.0
 40
10.0
 40
10.0
 40
10.0
 10
190.3229063182083
 20
780.9169261413895
 30
0.0
 10
190.3229063182083
 20
780.9169261413895
 30
0.0
 10
191.263112566467
 20
780.9169261413895
 30
0.0
 10
191.263112566467
 20
780.9169261413895
 30
0.0
 10
191.7307084739349
 20
780.9169261413895
 30
0.0
 10
192.0303208650512
 20
780.5654513524718
 30
0.0
 10
192.0303208650512
 20
780.1707677362828
 30
0.0
 10
192.0303208650512
 20
779.8437994463943
 30
0.0
 10
191.8272363154257
 20
779.63420438878
 30
0.0
 10
191.6053476408365
 20
779.5413376555596
 30
0.0
 10
191.6053476408365
 20
779.5413376555596
 30
0.0
 10
192.0904940649373
 20
778.542375365578
 30
0.0
 10
192.0904940649373
 20
778.542375365578
 30
0.0
 10
192.0904940649373
 20
778.542375365578
 30
0.0
 10
191.5038053660234
 20
778.542375365578
 30
0.0
 10
191.5038053660234
 20
778.542375365578
 30
0.0
 10
191.5038053660234
 20
778.542375365578
 30
0.0
 10
191.0838465751396
 20
779.4613690797413
 30
0.0
 10
191.0838465751396
 20
779.4613690797413
 30
0.0
 10
191.0838465751396
 20
779.4613690797413
 30
0.0
 10
190.8381393422564
 20
779.4613690797413
 30
0.0
 10
190.8381393422564
 20
779.4613690797413
 30
0.0
 10
190.8381393422564
 20
779.4613690797413
 30
0.0
 10
190.8381393422564
 20
778.542375365578
 30
0.0
 10
190.8381393422564
 20
778.542375365578
 30
0.0
 10
190.8381393422564
 20
778.542375365578
 30
0.0
 10
190.3229063182083
 20
778.542375365578
 30
0.0
 10
190.3229063182083
 20
778.542375365578
 30
0.0
 10
190.3229063182083
 20
778.542375365578
 30
0.0
 10
190.3229063182083
 20
780.9169261413895
 30
0.0
 10
190.3229063182083
 20
780.9169261413895
 30
0.0
  0
SPLINE
  5
C1
330
83
100
AcDbEntity
  8
Layer 1
 62
    40
370
    13
100
AcDbSpline
210
0.0
220
0.0
230
1.0
 70
    11
 71
     3
 72
    20
 73
    16
 74
     0
 42
0.0000000001
 43
0.0000000001
 12
1.0
 22
0.0
 32
0.0
 13
1.0
 23
0.0
 33
0.0
 40
0.0
 40
0.0
 40
0.0
 40
0.0
 40
1.0
 40
1.0
 40
1.0
 40
2.0
 40
2.0
 40
2.0
 40
3.0
 40
3.0
 40
3.0
 40
4.0
 40
4.0
 40
4.0
 40
5.0
 40
5.0
 40
5.0
 40
5.0
 10
191.1979249332585
 20
779.8625017746224
 30
0.0
 10
191.3897270079002
 20
779.8625017746224
 30
0.0
 10
191.5150878410034
 20
780.0043815059221
 30
0.0
 10
191.5150878410034
 20
780.1707677362828
 30
0.0
 10
191.5150878410034
 20
780.3371539666332
 30
0.0
 10
191.3897270079002
 20
780.4790336979438
 30
0.0
 10
191.1979249332585
 20
780.4790336979438
 30
0.0
 10
191.1979249332585
 20
780.4790336979438
 30
0.0
 10
190.8381393422564
 20
780.4790336979438
 30
0.0
 10
190.8381393422564
 20
780.4790336979438
 30
0.0
 10
190.8381393422564
 20
780.4790336979438
 30
0.0
 10
190.8381393422564
 20
779.8625017746224
 30
0.0
 10
190.8381393422564
 20
779.8625017746224
 30
0.0
 10
190.8381393422564
 20
779.8625017746224
 30
0.0
 10
191.1979249332585
 20
779.8625017746224
 30
0.0
 10
191.1979249332585
 20
779.8625017746224
 30
0.0
  0
ENDBLK
  5
86
330
83
100
AcDbEntity
  8
0
100
AcDbBlockEnd
  0
BLOCK
  5
C4
330
C2
100
AcDbEntity
  8
0
100
AcDbBlockBegin
  2
block 4
 70
     0
 10
0.0
 20
0.0
 30
0.0
  3
block 4
  1

  0
SPLINE
  5
C6
330
C2
100
AcDbEntity
  8
Layer 1
 62
    40
370
    13
100
AcDbSpline
210
0.0
220
0.0
230
1.0
 70
    11
 71
     3
 72
    65
 73
    61
 74
     0
 42
0.0000000001
 43
0.0000000001
 12
1.0
 22
0.0
 32
0.0
 13
1.0
 23
0.0
 33
0.0
 40
0.0
 40
0.0
 40
0.0
 40
0.0
 40
1.0
 40
1.0
 40
1.0
 40
2.0
 40
2.0
 40
2.0
 40
3.0
 40
3.0
 40
3.0
 40
4.0
 40
4.0
 40
4.0
 40
5.0
 40
5.0
 40
5.0
 40
6.0
 40
6.0
 40
6.0
 40
7.0
 40
7.0
 40
7.0
 40
8.0
 40
8.0
 40
8.0
 40
9.0
 40
9.0
 40
9.0
 40
10.0
 40
10.0
 40
10.0
 40
11.0
 40
11.0
 40
11.0
 40
12.0
 40
12.0
 40
12.0
 40
13.0
 40
13.0
 40
13.0
 40
14.0
 40
14.0
 40
14.0
 40
15.0
 40
15.0
 40
15.0
 40
16.0
 40
16.0
 40
16.0
 40
17.0
 40
17.0
 40
17.0
 40
18.0
 40
18.0
 40
18.0
 40
19.0
 40
19.0
 40
19.0
 40
20.0
 40
20.0
 40
20.0
 40
20.0
 10
34.44845820450313
 20
739.9685355302204
 30
0.0
 10
34.44845820450313
 20
739.9685355302204
 30
0.0
 10
33.06257188006558
 20
738.582649205779
 30
0.0
 10
33.06257188006558
 20
738.582649205779
 30
0.0
 10
31.84704367524057
 20
739.7429261285661
 30
0.0
 10
30.4623084191764
 20
740.3368774104666
 30
0.0
 10
28.369666112006
 20
740.3368774104666
 30
0.0
 10
25.65544688191786
 20
740.3368774104666
 30
0.0
 10
24.10035350623729
 20
738.8381863852035
 30
0.0
 10
24.10035350623729
 20
736.5751859584167
 30
0.0
 10
24.10035350623729
 20
735.5852671552489
 30
0.0
 10
24.38351632667927
 20
734.7657064716911
 30
0.0
 10
25.00509324960085
 20
734.2293086085747
 30
0.0
 10
25.62667017252213
 20
733.6929107454656
 30
0.0
 10
26.58781226629896
 20
733.352194506229
 30
0.0
 10
27.63413341988352
 20
733.1841385233699
 30
0.0
 10
27.63413341988352
 20
733.1841385233699
 30
0.0
 10
29.98116183810016
 20
732.8157966431199
 30
0.0
 10
29.98116183810016
 20
732.8157966431199
 30
0.0
 10
31.84704367524057
 20
732.5326338226779
 30
0.0
 10
32.72300670921
 20
732.1942197201951
 30
0.0
 10
33.62774645257358
 20
731.3746590366409
 30
0.0
 10
34.7028443155513
 20
730.4399915155075
 30
0.0
 10
35.32442123847482
 20
729.0840329688365
 30
0.0
 10
35.32442123847482
 20
727.4149838239538
 30
0.0
 10
35.32442123847482
 20
723.8812039103076
 30
0.0
 10
32.58257636736305
 20
721.7033825433323
 30
0.0
 10
28.369666112006
 20
721.7033825433323
 30
0.0
 10
25.37228406147652
 20
721.7033825433323
 30
0.0
 10
23.36482081411288
 20
722.4676919448525
 30
0.0
 10
21.49893897697472
 20
724.362350491386
 30
0.0
 10
21.49893897697472
 20
724.362350491386
 30
0.0
 10
22.94122765182587
 20
725.8034880978619
 30
0.0
 10
22.94122765182587
 20
725.8034880978619
 30
0.0
 10
24.6091257283317
 20
724.1367410897356
 30
0.0
 10
26.16421910401227
 20
723.6256667308863
 30
0.0
 10
28.42606846241959
 20
723.6256667308863
 30
0.0
 10
31.39467380355975
 20
723.6256667308863
 30
0.0
 10
33.20415329028656
 20
724.983927414307
 30
0.0
 10
33.20415329028656
 20
727.3597325419194
 30
0.0
 10
33.20415329028656
 20
728.4325282681486
 30
0.0
 10
32.89336482882481
 20
729.2820167294736
 30
0.0
 10
32.21423448711367
 20
729.8759680113774
 30
0.0
 10
31.59265756419433
 20
730.4399915155075
 30
0.0
 10
31.0274829916844
 20
730.6379752761446
 30
0.0
 10
29.58519431683325
 20
730.8635846777913
 30
0.0
 10
29.58519431683325
 20
730.8635846777913
 30
0.0
 10
27.23816589861629
 20
731.204300917028
 30
0.0
 10
27.23816589861629
 20
731.204300917028
 30
0.0
 10
25.65544688191786
 20
731.4575359596957
 30
0.0
 10
24.46754431811071
 20
731.9386825407742
 30
0.0
 10
23.56280457474746
 20
732.7306175833115
 30
0.0
 10
22.54526013055703
 20
733.6353573266741
 30
0.0
 10
22.00771119906689
 20
734.8785111725164
 30
0.0
 10
22.00771119906689
 20
736.5199346763823
 30
0.0
 10
22.00771119906689
 20
739.9409098891997
 30
0.0
 10
24.46754431811071
 20
742.173982538216
 30
0.0
 10
28.45484517181533
 20
742.173982538216
 30
0.0
 10
31.0274829916844
 20
742.173982538216
 30
0.0
 10
32.72300670921
 20
741.494852196504
 30
0.0
 10
34.44845820450313
 20
739.9685355302204
 30
0.0
  0
SPLINE
  5
C7
330
C2
100
AcDbEntity
  8
Layer 1
 62
    40
370
    13
100
AcDbSpline
210
0.0
220
0.0
230
1.0
 70
    11
 71
     3
 72
    53
 73
    49
 74
     0
 42
0.0000000001
 43
0.0000000001
 12
1.0
 22
0.0
 32
0.0
 13
1.0
 23
0.0
 33
0.0
 40
0.0
 40
0.0
 40
0.0
 40
0.0
 40
1.0
 40
1.0
 40
1.0
 40
2.0
 40
2.0
 40
2.0
 40
3.0
 40
3.0
 40
3.0
 40
4.0
 40
4.0
 40
4.0
 40
5.0
 40
5.0
 40
5.0
 40
6.0
 40
6.0
 40
6.0
 40
7.0
 40
7.0
 40
7.0
 40
8.0
 40
8.0
 40
8.0
 40
9.0
 40
9.0
 40
9.0
 40
10.0
 40
10.0
 40
10.0
 40
11.0
 40
11.0
 40
11.0
 40
12.0
 40
12.0
 40
12.0
 40
13.0
 40
13.0
 40
13.0
 40
14.0
 40
14.0
 40
14.0
 40
15.0
 40
15.0
 40
15.0
 40
16.0
 40
16.0
 40
16.0
 40
16.0
 10
41.83716610863905
 20
735.7832509158828
 30
0.0
 10
41.83716610863905
 20
735.7832509158828
 30
0.0
 10
44.80577144977921
 20
735.7832509158828
 30
0.0
 10
44.80577144977921
 20
735.7832509158828
 30
0.0
 10
44.80577144977921
 20
735.7832509158828
 30
0.0
 10
44.80577144977921
 20
734.2293086085747
 30
0.0
 10
44.80577144977921
 20
734.2293086085747
 30
0.0
 10
44.80577144977921
 20
734.2293086085747
 30
0.0
 10
41.83716610863905
 20
734.2293086085747
 30
0.0
 10
41.83716610863905
 20
734.2293086085747
 30
0.0
 10
41.83716610863905
 20
734.2293086085747
 30
0.0
 10
41.83716610863905
 20
725.6630577560194
 30
0.0
 10
41.83716610863905
 20
725.6630577560194
 30
0.0
 10
41.83716610863905
 20
724.362350491386
 30
0.0
 10
42.43111739054665
 20
723.6256667308863
 30
0.0
 10
43.73182465517488
 20
723.6256667308863
 30
0.0
 10
43.73182465517488
 20
723.6256667308863
 30
0.0
 10
44.80577144977921
 20
723.6256667308863
 30
0.0
 10
44.80577144977921
 20
723.6256667308863
 30
0.0
 10
44.80577144977921
 20
723.6256667308863
 30
0.0
 10
44.80577144977921
 20
721.8737406629484
 30
0.0
 10
44.80577144977921
 20
721.8737406629484
 30
0.0
 10
44.80577144977921
 20
721.8737406629484
 30
0.0
 10
43.36348277492582
 20
721.8737406629484
 30
0.0
 10
43.36348277492582
 20
721.8737406629484
 30
0.0
 10
40.98882871569132
 20
721.8737406629484
 30
0.0
 10
39.80092615188385
 20
723.5427898078318
 30
0.0
 10
39.80092615188385
 20
725.6055043372282
 30
0.0
 10
39.80092615188385
 20
725.6055043372282
 30
0.0
 10
39.80092615188385
 20
734.2293086085747
 30
0.0
 10
39.80092615188385
 20
734.2293086085747
 30
0.0
 10
39.80092615188385
 20
734.2293086085747
 30
0.0
 10
38.04784901557062
 20
734.2293086085747
 30
0.0
 10
38.04784901557062
 20
734.2293086085747
 30
0.0
 10
38.04784901557062
 20
734.2293086085747
 30
0.0
 10
38.04784901557062
 20
735.7832509158828
 30
0.0
 10
38.04784901557062
 20
735.7832509158828
 30
0.0
 10
38.04784901557062
 20
735.7832509158828
 30
0.0
 10
39.80092615188385
 20
735.7832509158828
 30
0.0
 10
39.80092615188385
 20
735.7832509158828
 30
0.0
 10
39.80092615188385
 20
735.7832509158828
 30
0.0
 10
39.80092615188385
 20
740.0537145900249
 30
0.0
 10
39.80092615188385
 20
740.0537145900249
 30
0.0
 10
39.80092615188385
 20
740.0537145900249
 30
0.0
 10
41.83716610863905
 20
740.0537145900249
 30
0.0
 10
41.83716610863905
 20
740.0537145900249
 30
0.0
 10
41.83716610863905
 20
740.0537145900249
 30
0.0
 10
41.83716610863905
 20
735.7832509158828
 30
0.0
 10
41.83716610863905
 20
735.7832509158828
 30
0.0
  0
SPLINE
  5
C8
330
C2
100
AcDbEntity
  8
Layer 1
 62
    40
370
    13
100
AcDbSpline
210
0.0
220
0.0
230
1.0
 70
    11
 71
     3
 72
    35
 73
    31
 74
     0
 42
0.0000000001
 43
0.0000000001
 12
1.0
 22
0.0
 32
0.0
 13
1.0
 23
0.0
 33
0.0
 40
0.0
 40
0.0
 40
0.0
 40
0.0
 40
1.0
 40
1.0
 40
1.0
 40
2.0
 40
2.0
 40
2.0
 40
3.0
 40
3.0
 40
3.0
 40
4.0
 40
4.0
 40
4.0
 40
5.0
 40
5.0
 40
5.0
 40
6.0
 40
6.0
 40
6.0
 40
7.0
 40
7.0
 40
7.0
 40
8.0
 40
8.0
 40
8.0
 40
9.0
 40
9.0
 40
9.0
 40
10.0
 40
10.0
 40
10.0
 40
10.0
 10
58.12593469431117
 20
734.6529017708658
 30
0.0
 10
58.12593469431117
 20
734.6529017708658
 30
0.0
 10
56.62724366904418
 20
733.1265851045823
 30
0.0
 10
56.62724366904418
 20
733.1265851045823
 30
0.0
 10
55.86408533590385
 20
733.8908945060989
 30
0.0
 10
55.29891076339393
 20
734.1441295487698
 30
0.0
 10
54.22496396879183
 20
734.1441295487698
 30
0.0
 10
52.1887240120347
 20
734.1441295487698
 30
0.0
 10
50.8880167474023
 20
732.5326338226779
 30
0.0
 10
50.8880167474023
 20
730.4123658744871
 30
0.0
 10
50.8880167474023
 20
730.4123658744871
 30
0.0
 10
50.8880167474023
 20
721.8737406629484
 30
0.0
 10
50.8880167474023
 20
721.8737406629484
 30
0.0
 10
50.8880167474023
 20
721.8737406629484
 30
0.0
 10
48.85292785902337
 20
721.8737406629484
 30
0.0
 10
48.85292785902337
 20
721.8737406629484
 30
0.0
 10
48.85292785902337
 20
721.8737406629484
 30
0.0
 10
48.85292785902337
 20
735.7832509158828
 30
0.0
 10
48.85292785902337
 20
735.7832509158828
 30
0.0
 10
48.85292785902337
 20
735.7832509158828
 30
0.0
 10
50.8880167474023
 20
735.7832509158828
 30
0.0
 10
50.8880167474023
 20
735.7832509158828
 30
0.0
 10
50.8880167474023
 20
735.7832509158828
 30
0.0
 10
50.8880167474023
 20
734.0865761299822
 30
0.0
 10
50.8880167474023
 20
734.0865761299822
 30
0.0
 10
51.6511750805468
 20
735.2468530527699
 30
0.0
 10
53.17864281520535
 20
735.9536090354957
 30
0.0
 10
54.79013854129727
 20
735.9536090354957
 30
0.0
 10
56.1184714469501
 20
735.9536090354957
 30
0.0
 10
57.13601589114052
 20
735.6428205740365
 30
0.0
 10
58.12593469431117
 20
734.6529017708658
 30
0.0
  0
SPLINE
  5
C9
330
C2
100
AcDbEntity
  8
Layer 1
 62
    40
370
    13
100
AcDbSpline
210
0.0
220
0.0
230
1.0
 70
    11
 71
     3
 72
    44
 73
    40
 74
     0
 42
0.0000000001
 43
0.0000000001
 12
1.0
 22
0.0
 32
0.0
 13
1.0
 23
0.0
 33
0.0
 40
0.0
 40
0.0
 40
0.0
 40
0.0
 40
1.0
 40
1.0
 40
1.0
 40
2.0
 40
2.0
 40
2.0
 40
3.0
 40
3.0
 40
3.0
 40
4.0
 40
4.0
 40
4.0
 40
5.0
 40
5.0
 40
5.0
 40
6.0
 40
6.0
 40
6.0
 40
7.0
 40
7.0
 40
7.0
 40
8.0
 40
8.0
 40
8.0
 40
9.0
 40
9.0
 40
9.0
 40
10.0
 40
10.0
 40
10.0
 40
11.0
 40
11.0
 40
11.0
 40
12.0
 40
12.0
 40
12.0
 40
13.0
 40
13.0
 40
13.0
 40
13.0
 10
71.59113255419167
 20
721.8737406629484
 30
0.0
 10
71.59113255419167
 20
721.8737406629484
 30
0.0
 10
69.5836693068306
 20
721.8737406629484
 30
0.0
 10
69.5836693068306
 20
721.8737406629484
 30
0.0
 10
69.5836693068306
 20
721.8737406629484
 30
0.0
 10
69.5836693068306
 20
723.4276829702527
 30
0.0
 10
69.5836693068306
 20
723.4276829702527
 30
0.0
 10
68.59375050366026
 20
722.297333825236
 30
0.0
 10
67.2090152475961
 20
721.7033825433323
 30
0.0
 10
65.65392187191777
 20
721.7033825433323
 30
0.0
 10
64.15523084664854
 20
721.7033825433323
 30
0.0
 10
62.91092593243197
 20
722.1569034833904
 30
0.0
 10
62.06373960785795
 20
723.0040898079653
 30
0.0
 10
61.07382080468538
 20
723.9663829701155
 30
0.0
 10
60.62145093300263
 20
725.2947158757694
 30
0.0
 10
60.62145093300263
 20
726.9062116018613
 30
0.0
 10
60.62145093300263
 20
726.9062116018613
 30
0.0
 10
60.62145093300263
 20
735.7832509158828
 30
0.0
 10
60.62145093300263
 20
735.7832509158828
 30
0.0
 10
60.62145093300263
 20
735.7832509158828
 30
0.0
 10
62.6565398213838
 20
735.7832509158828
 30
0.0
 10
62.6565398213838
 20
735.7832509158828
 30
0.0
 10
62.6565398213838
 20
735.7832509158828
 30
0.0
 10
62.6565398213838
 20
727.2170000633237
 30
0.0
 10
62.6565398213838
 20
727.2170000633237
 30
0.0
 10
62.6565398213838
 20
724.7583180126533
 30
0.0
 10
63.98602379540969
 20
723.5128620300575
 30
0.0
 10
66.07751503420445
 20
723.5128620300575
 30
0.0
 10
68.17015734137134
 20
723.5128620300575
 30
0.0
 10
69.55604366581306
 20
724.7859436536737
 30
0.0
 10
69.55604366581306
 20
727.2170000633237
 30
0.0
 10
69.55604366581306
 20
727.2170000633237
 30
0.0
 10
69.55604366581306
 20
735.7832509158828
 30
0.0
 10
69.55604366581306
 20
735.7832509158828
 30
0.0
 10
69.55604366581306
 20
735.7832509158828
 30
0.0
 10
71.59113255419167
 20
735.7832509158828
 30
0.0
 10
71.59113255419167
 20
735.7832509158828
 30
0.0
 10
71.59113255419167
 20
735.7832509158828
 30
0.0
 10
71.59113255419167
 20
721.8737406629484
 30
0.0
 10
71.59113255419167
 20
721.8737406629484
 30
0.0
  0
SPLINE
  5
CA
330
C2
100
AcDbEntity
  8
Layer 1
 62
    40
370
    13
100
AcDbSpline
210
0.0
220
0.0
230
1.0
 70
    11
 71
     3
 72
    41
 73
    37
 74
     0
 42
0.0000000001
 43
0.0000000001
 12
1.0
 22
0.0
 32
0.0
 13
1.0
 23
0.0
 33
0.0
 40
0.0
 40
0.0
 40
0.0
 40
0.0
 40
1.0
 40
1.0
 40
1.0
 40
2.0
 40
2.0
 40
2.0
 40
3.0
 40
3.0
 40
3.0
 40
4.0
 40
4.0
 40
4.0
 40
5.0
 40
5.0
 40
5.0
 40
6.0
 40
6.0
 40
6.0
 40
7.0
 40
7.0
 40
7.0
 40
8.0
 40
8.0
 40
8.0
 40
9.0
 40
9.0
 40
9.0
 40
10.0
 40
10.0
 40
10.0
 40
11.0
 40
11.0
 40
11.0
 40
12.0
 40
12.0
 40
12.0
 40
12.0
 10
86.69775391793706
 20
733.8908945060989
 30
0.0
 10
86.69775391793706
 20
733.8908945060989
 30
0.0
 10
85.31186759349725
 20
732.5901872414655
 30
0.0
 10
85.31186759349725
 20
732.5901872414655
 30
0.0
 10
84.2655464399127
 20
733.7481620274993
 30
0.0
 10
83.44598575635685
 20
734.1441295487698
 30
0.0
 10
82.11765285070723
 20
734.1441295487698
 30
0.0
 10
80.76054323566059
 20
734.1441295487698
 30
0.0
 10
79.62904302226896
 20
733.6077316856572
 30
0.0
 10
78.89466139852051
 20
732.5602594636952
 30
0.0
 10
78.24430776620511
 20
731.6555197203326
 30
0.0
 10
77.98992165515693
 20
730.5827239941032
 30
0.0
 10
77.98992165515693
 20
728.8284957894156
 30
0.0
 10
77.98992165515693
 20
727.076569721478
 30
0.0
 10
78.24430776620511
 20
726.0014718584952
 30
0.0
 10
78.89466139852051
 20
725.0967321151361
 30
0.0
 10
79.62904302226896
 20
724.0515620299275
 30
0.0
 10
80.76054323566059
 20
723.5128620300575
 30
0.0
 10
82.11765285070723
 20
723.5128620300575
 30
0.0
 10
83.44598575635685
 20
723.5128620300575
 30
0.0
 10
84.2655464399127
 20
723.9387573290984
 30
0.0
 10
85.31186759349725
 20
725.0967321151361
 30
0.0
 10
85.31186759349725
 20
725.0967321151361
 30
0.0
 10
86.69775391793706
 20
723.7683992094856
 30
0.0
 10
86.69775391793706
 20
723.7683992094856
 30
0.0
 10
85.25546524308335
 20
722.212154765428
 30
0.0
 10
84.03993703826059
 20
721.7033825433323
 30
0.0
 10
82.11765285070723
 20
721.7033825433323
 30
0.0
 10
78.61149857807852
 20
721.7033825433323
 30
0.0
 10
75.95368169840205
 20
724.0791876709446
 30
0.0
 10
75.95368169840205
 20
728.8284957894156
 30
0.0
 10
75.95368169840205
 20
733.5778039078865
 30
0.0
 10
78.61149857807852
 20
735.9536090354957
 30
0.0
 10
82.11765285070723
 20
735.9536090354957
 30
0.0
 10
84.03993703826059
 20
735.9536090354957
 30
0.0
 10
85.25546524308335
 20
735.4448368134032
 30
0.0
 10
86.69775391793706
 20
733.8908945060989
 30
0.0
  0
SPLINE
  5
CB
330
C2
100
AcDbEntity
  8
Layer 1
 62
    40
370
    13
100
AcDbSpline
210
0.0
220
0.0
230
1.0
 70
    11
 71
     3
 72
    53
 73
    49
 74
     0
 42
0.0000000001
 43
0.0000000001
 12
1.0
 22
0.0
 32
0.0
 13
1.0
 23
0.0
 33
0.0
 40
0.0
 40
0.0
 40
0.0
 40
0.0
 40
1.0
 40
1.0
 40
1.0
 40
2.0
 40
2.0
 40
2.0
 40
3.0
 40
3.0
 40
3.0
 40
4.0
 40
4.0
 40
4.0
 40
5.0
 40
5.0
 40
5.0
 40
6.0
 40
6.0
 40
6.0
 40
7.0
 40
7.0
 40
7.0
 40
8.0
 40
8.0
 40
8.0
 40
9.0
 40
9.0
 40
9.0
 40
10.0
 40
10.0
 40
10.0
 40
11.0
 40
11.0
 40
11.0
 40
12.0
 40
12.0
 40
12.0
 40
13.0
 40
13.0
 40
13.0
 40
14.0
 40
14.0
 40
14.0
 40
15.0
 40
15.0
 40
15.0
 40
16.0
 40
16.0
 40
16.0
 40
16.0
 10
92.95381054030283
 20
735.7832509158828
 30
0.0
 10
92.95381054030283
 20
735.7832509158828
 30
0.0
 10
95.92241588144297
 20
735.7832509158828
 30
0.0
 10
95.92241588144297
 20
735.7832509158828
 30
0.0
 10
95.92241588144297
 20
735.7832509158828
 30
0.0
 10
95.92241588144297
 20
734.2293086085747
 30
0.0
 10
95.92241588144297
 20
734.2293086085747
 30
0.0
 10
95.92241588144297
 20
734.2293086085747
 30
0.0
 10
92.95381054030283
 20
734.2293086085747
 30
0.0
 10
92.95381054030283
 20
734.2293086085747
 30
0.0
 10
92.95381054030283
 20
734.2293086085747
 30
0.0
 10
92.95381054030283
 20
725.6630577560194
 30
0.0
 10
92.95381054030283
 20
725.6630577560194
 30
0.0
 10
92.95381054030283
 20
724.362350491386
 30
0.0
 10
93.54776182220655
 20
723.6256667308863
 30
0.0
 10
94.8484690868412
 20
723.6256667308863
 30
0.0
 10
94.8484690868412
 20
723.6256667308863
 30
0.0
 10
95.92241588144297
 20
723.6256667308863
 30
0.0
 10
95.92241588144297
 20
723.6256667308863
 30
0.0
 10
95.92241588144297
 20
723.6256667308863
 30
0.0
 10
95.92241588144297
 20
721.8737406629484
 30
0.0
 10
95.92241588144297
 20
721.8737406629484
 30
0.0
 10
95.92241588144297
 20
721.8737406629484
 30
0.0
 10
94.48012720658959
 20
721.8737406629484
 30
0.0
 10
94.48012720658959
 20
721.8737406629484
 30
0.0
 10
92.10547314735508
 20
721.8737406629484
 30
0.0
 10
90.91757058354825
 20
723.5427898078318
 30
0.0
 10
90.91757058354825
 20
725.6055043372282
 30
0.0
 10
90.91757058354825
 20
725.6055043372282
 30
0.0
 10
90.91757058354825
 20
734.2293086085747
 30
0.0
 10
90.91757058354825
 20
734.2293086085747
 30
0.0
 10
90.91757058354825
 20
734.2293086085747
 30
0.0
 10
89.16449344723503
 20
734.2293086085747
 30
0.0
 10
89.16449344723503
 20
734.2293086085747
 30
0.0
 10
89.16449344723503
 20
734.2293086085747
 30
0.0
 10
89.16449344723503
 20
735.7832509158828
 30
0.0
 10
89.16449344723503
 20
735.7832509158828
 30
0.0
 10
89.16449344723503
 20
735.7832509158828
 30
0.0
 10
90.91757058354825
 20
735.7832509158828
 30
0.0
 10
90.91757058354825
 20
735.7832509158828
 30
0.0
 10
90.91757058354825
 20
735.7832509158828
 30
0.0
 10
90.91757058354825
 20
740.0537145900249
 30
0.0
 10
90.91757058354825
 20
740.0537145900249
 30
0.0
 10
90.91757058354825
 20
740.0537145900249
 30
0.0
 10
92.95381054030283
 20
740.0537145900249
 30
0.0
 10
92.95381054030283
 20
740.0537145900249
 30
0.0
 10
92.95381054030283
 20
740.0537145900249
 30
0.0
 10
92.95381054030283
 20
735.7832509158828
 30
0.0
 10
92.95381054030283
 20
735.7832509158828
 30
0.0
  0
SPLINE
  5
CC
330
C2
100
AcDbEntity
  8
Layer 1
 62
    40
370
    13
100
AcDbSpline
210
0.0
220
0.0
230
1.0
 70
    11
 71
     3
 72
    44
 73
    40
 74
     0
 42
0.0000000001
 43
0.0000000001
 12
1.0
 22
0.0
 32
0.0
 13
1.0
 23
0.0
 33
0.0
 40
0.0
 40
0.0
 40
0.0
 40
0.0
 40
1.0
 40
1.0
 40
1.0
 40
2.0
 40
2.0
 40
2.0
 40
3.0
 40
3.0
 40
3.0
 40
4.0
 40
4.0
 40
4.0
 40
5.0
 40
5.0
 40
5.0
 40
6.0
 40
6.0
 40
6.0
 40
7.0
 40
7.0
 40
7.0
 40
8.0
 40
8.0
 40
8.0
 40
9.0
 40
9.0
 40
9.0
 40
10.0
 40
10.0
 40
10.0
 40
11.0
 40
11.0
 40
11.0
 40
12.0
 40
12.0
 40
12.0
 40
13.0
 40
13.0
 40
13.0
 40
13.0
 10
110.7976725016555
 20
721.8737406629484
 30
0.0
 10
110.7976725016555
 20
721.8737406629484
 30
0.0
 10
108.7902092542944
 20
721.8737406629484
 30
0.0
 10
108.7902092542944
 20
721.8737406629484
 30
0.0
 10
108.7902092542944
 20
721.8737406629484
 30
0.0
 10
108.7902092542944
 20
723.4276829702527
 30
0.0
 10
108.7902092542944
 20
723.4276829702527
 30
0.0
 10
107.8002904511215
 20
722.297333825236
 30
0.0
 10
106.4155551950577
 20
721.7033825433323
 30
0.0
 10
104.8604618193794
 20
721.7033825433323
 30
0.0
 10
103.3617707941121
 20
721.7033825433323
 30
0.0
 10
102.1174658798936
 20
722.1569034833904
 30
0.0
 10
101.2691284869436
 20
723.0040898079653
 30
0.0
 10
100.280360752147
 20
723.9663829701155
 30
0.0
 10
99.82799088046615
 20
725.2947158757694
 30
0.0
 10
99.82799088046615
 20
726.9062116018613
 30
0.0
 10
99.82799088046615
 20
726.9062116018613
 30
0.0
 10
99.82799088046615
 20
735.7832509158828
 30
0.0
 10
99.82799088046615
 20
735.7832509158828
 30
0.0
 10
99.82799088046615
 20
735.7832509158828
 30
0.0
 10
101.8630797688454
 20
735.7832509158828
 30
0.0
 10
101.8630797688454
 20
735.7832509158828
 30
0.0
 10
101.8630797688454
 20
735.7832509158828
 30
0.0
 10
101.8630797688454
 20
727.2170000633237
 30
0.0
 10
101.8630797688454
 20
727.2170000633237
 30
0.0
 10
101.8630797688454
 20
724.7583180126533
 30
0.0
 10
103.1925637428732
 20
723.5128620300575
 30
0.0
 10
105.284054981666
 20
723.5128620300575
 30
0.0
 10
107.3766972888345
 20
723.5128620300575
 30
0.0
 10
108.7625836132743
 20
724.7859436536737
 30
0.0
 10
108.7625836132743
 20
727.2170000633237
 30
0.0
 10
108.7625836132743
 20
727.2170000633237
 30
0.0
 10
108.7625836132743
 20
735.7832509158828
 30
0.0
 10
108.7625836132743
 20
735.7832509158828
 30
0.0
 10
108.7625836132743
 20
735.7832509158828
 30
0.0
 10
110.7976725016555
 20
735.7832509158828
 30
0.0
 10
110.7976725016555
 20
735.7832509158828
 30
0.0
 10
110.7976725016555
 20
735.7832509158828
 30
0.0
 10
110.7976725016555
 20
721.8737406629484
 30
0.0
 10
110.7976725016555
 20
721.8737406629484
 30
0.0
  0
SPLINE
  5
CD
330
C2
100
AcDbEntity
  8
Layer 1
 62
    40
370
    13
100
AcDbSpline
210
0.0
220
0.0
230
1.0
 70
    11
 71
     3
 72
    35
 73
    31
 74
     0
 42
0.0000000001
 43
0.0000000001
 12
1.0
 22
0.0
 32
0.0
 13
1.0
 23
0.0
 33
0.0
 40
0.0
 40
0.0
 40
0.0
 40
0.0
 40
1.0
 40
1.0
 40
1.0
 40
2.0
 40
2.0
 40
2.0
 40
3.0
 40
3.0
 40
3.0
 40
4.0
 40
4.0
 40
4.0
 40
5.0
 40
5.0
 40
5.0
 40
6.0
 40
6.0
 40
6.0
 40
7.0
 40
7.0
 40
7.0
 40
8.0
 40
8.0
 40
8.0
 40
9.0
 40
9.0
 40
9.0
 40
10.0
 40
10.0
 40
10.0
 40
10.0
 10
125.1699122416499
 20
734.6529017708658
 30
0.0
 10
125.1699122416499
 20
734.6529017708658
 30
0.0
 10
123.6712212163848
 20
733.1265851045823
 30
0.0
 10
123.6712212163848
 20
733.1265851045823
 30
0.0
 10
122.9069118148666
 20
733.8908945060989
 30
0.0
 10
122.3405861739823
 20
734.1441295487698
 30
0.0
 10
121.2677904477546
 20
734.1441295487698
 30
0.0
 10
119.2303994226234
 20
734.1441295487698
 30
0.0
 10
117.9319942947429
 20
732.5326338226779
 30
0.0
 10
117.9319942947429
 20
730.4123658744871
 30
0.0
 10
117.9319942947429
 20
730.4123658744871
 30
0.0
 10
117.9319942947429
 20
721.8737406629484
 30
0.0
 10
117.9319942947429
 20
721.8737406629484
 30
0.0
 10
117.9319942947429
 20
721.8737406629484
 30
0.0
 10
115.8946032696098
 20
721.8737406629484
 30
0.0
 10
115.8946032696098
 20
721.8737406629484
 30
0.0
 10
115.8946032696098
 20
721.8737406629484
 30
0.0
 10
115.8946032696098
 20
735.7832509158828
 30
0.0
 10
115.8946032696098
 20
735.7832509158828
 30
0.0
 10
115.8946032696098
 20
735.7832509158828
 30
0.0
 10
117.9319942947429
 20
735.7832509158828
 30
0.0
 10
117.9319942947429
 20
735.7832509158828
 30
0.0
 10
117.9319942947429
 20
735.7832509158828
 30
0.0
 10
117.9319942947429
 20
734.0865761299822
 30
0.0
 10
117.9319942947429
 20
734.0865761299822
 30
0.0
 10
118.6940015595092
 20
735.2468530527699
 30
0.0
 10
120.2203182257941
 20
735.9536090354957
 30
0.0
 10
121.8318139518908
 20
735.9536090354957
 30
0.0
 10
123.1624489942885
 20
735.9536090354957
 30
0.0
 10
124.1799934384812
 20
735.6428205740365
 30
0.0
 10
125.1699122416499
 20
734.6529017708658
 30
0.0
  0
SPLINE
  5
CE
330
C2
100
AcDbEntity
  8
Layer 1
 62
    40
370
    13
100
AcDbSpline
210
0.0
220
0.0
230
1.0
 70
    11
 71
     3
 72
    47
 73
    43
 74
     0
 42
0.0000000001
 43
0.0000000001
 12
1.0
 22
0.0
 32
0.0
 13
1.0
 23
0.0
 33
0.0
 40
0.0
 40
0.0
 40
0.0
 40
0.0
 40
1.0
 40
1.0
 40
1.0
 40
2.0
 40
2.0
 40
2.0
 40
3.0
 40
3.0
 40
3.0
 40
4.0
 40
4.0
 40
4.0
 40
5.0
 40
5.0
 40
5.0
 40
6.0
 40
6.0
 40
6.0
 40
7.0
 40
7.0
 40
7.0
 40
8.0
 40
8.0
 40
8.0
 40
9.0
 40
9.0
 40
9.0
 40
10.0
 40
10.0
 40
10.0
 40
11.0
 40
11.0
 40
11.0
 40
12.0
 40
12.0
 40
12.0
 40
13.0
 40
13.0
 40
13.0
 40
14.0
 40
14.0
 40
14.0
 40
14.0
 10
137.4449054009755
 20
731.3171056178533
 30
0.0
 10
137.4449054009755
 20
731.3171056178533
 30
0.0
 10
137.4449054009755
 20
721.8737406629484
 30
0.0
 10
137.4449054009755
 20
721.8737406629484
 30
0.0
 10
137.4449054009755
 20
721.8737406629484
 30
0.0
 10
135.4098165125963
 20
721.8737406629484
 30
0.0
 10
135.4098165125963
 20
721.8737406629484
 30
0.0
 10
135.4098165125963
 20
721.8737406629484
 30
0.0
 10
135.4098165125963
 20
723.202073568599
 30
0.0
 10
135.4098165125963
 20
723.202073568599
 30
0.0
 10
134.3070930085987
 20
722.0993500646027
 30
0.0
 10
133.2596207866385
 20
721.7033825433323
 30
0.0
 10
131.3948900178741
 20
721.7033825433323
 30
0.0
 10
129.4726058303179
 20
721.7033825433323
 30
0.0
 10
128.425133608358
 20
722.0440987825651
 30
0.0
 10
127.4651425829568
 20
722.9764641669485
 30
0.0
 10
126.7583866002281
 20
723.655594508657
 30
0.0
 10
126.4176703609963
 20
724.7007645938656
 30
0.0
 10
126.4176703609963
 20
725.8034880978619
 30
0.0
 10
126.4176703609963
 20
728.2644722852855
 30
0.0
 10
128.1442729246679
 20
729.8184145925827
 30
0.0
 10
131.2521575392771
 20
729.8184145925827
 30
0.0
 10
131.2521575392771
 20
729.8184145925827
 30
0.0
 10
135.4098165125963
 20
729.8184145925827
 30
0.0
 10
135.4098165125963
 20
729.8184145925827
 30
0.0
 10
135.4098165125963
 20
729.8184145925827
 30
0.0
 10
135.4098165125963
 20
731.1467474982333
 30
0.0
 10
135.4098165125963
 20
731.1467474982333
 30
0.0
 10
135.4098165125963
 20
733.1542107455956
 30
0.0
 10
134.4198977094214
 20
734.2016829675574
 30
0.0
 10
131.8461088211764
 20
734.2016829675574
 30
0.0
 10
130.0941827532414
 20
734.2016829675574
 30
0.0
 10
129.1894430098762
 20
733.7481620274993
 30
0.0
 10
128.3399545485503
 20
732.5901872414655
 30
0.0
 10
128.3399545485503
 20
732.5901872414655
 30
0.0
 10
126.9563703608624
 20
733.8609667283285
 30
0.0
 10
126.9563703608624
 20
733.8609667283285
 30
0.0
 10
128.1718985656877
 20
735.4724624544205
 30
0.0
 10
129.5854105311457
 20
735.9536090354957
 30
0.0
 10
131.8760365989484
 20
735.9536090354957
 30
0.0
 10
135.6354259142487
 20
735.9536090354957
 30
0.0
 10
137.4449054009755
 20
734.3144876683828
 30
0.0
 10
137.4449054009755
 20
731.3171056178533
 30
0.0
  0
SPLINE
  5
CF
330
C2
100
AcDbEntity
  8
Layer 1
 62
    40
370
    13
100
AcDbSpline
210
0.0
220
0.0
230
1.0
 70
    11
 71
     3
 72
    23
 73
    19
 74
     0
 42
0.0000000001
 43
0.0000000001
 12
1.0
 22
0.0
 32
0.0
 13
1.0
 23
0.0
 33
0.0
 40
0.0
 40
0.0
 40
0.0
 40
0.0
 40
1.0
 40
1.0
 40
1.0
 40
2.0
 40
2.0
 40
2.0
 40
3.0
 40
3.0
 40
3.0
 40
4.0
 40
4.0
 40
4.0
 40
5.0
 40
5.0
 40
5.0
 40
6.0
 40
6.0
 40
6.0
 40
6.0
 10
131.5353203597188
 20
728.2920979262992
 30
0.0
 10
129.4426780525506
 20
728.2920979262992
 30
0.0
 10
128.3975079673382
 20
727.4725372427446
 30
0.0
 10
128.3975079673382
 20
725.8311137388823
 30
0.0
 10
128.3975079673382
 20
724.2196180127903
 30
0.0
 10
129.3874267705127
 20
723.4576107480234
 30
0.0
 10
131.6204994195259
 20
723.4576107480234
 30
0.0
 10
132.7807763423142
 20
723.4576107480234
 30
0.0
 10
133.7983207865021
 20
723.5704154488521
 30
0.0
 10
134.7030605298679
 20
724.3899761324033
 30
0.0
 10
135.1842071109425
 20
724.8434970724613
 30
0.0
 10
135.4098165125963
 20
725.633129978249
 30
0.0
 10
135.4098165125963
 20
726.7934069010361
 30
0.0
 10
135.4098165125963
 20
726.7934069010361
 30
0.0
 10
135.4098165125963
 20
728.2920979262992
 30
0.0
 10
135.4098165125963
 20
728.2920979262992
 30
0.0
 10
135.4098165125963
 20
728.2920979262992
 30
0.0
 10
131.5353203597188
 20
728.2920979262992
 30
0.0
 10
131.5353203597188
 20
728.2920979262992
 30
0.0
  0
SPLINE
  5
D0
330
C2
100
AcDbEntity
  8
Layer 1
 62
    40
370
    13
100
AcDbSpline
210
0.0
220
0.0
230
1.0
 70
    11
 71
     3
 72
    29
 73
    25
 74
     0
 42
0.0000000001
 43
0.0000000001
 12
1.0
 22
0.0
 32
0.0
 13
1.0
 23
0.0
 33
0.0
 40
0.0
 40
0.0
 40
0.0
 40
0.0
 40
1.0
 40
1.0
 40
1.0
 40
2.0
 40
2.0
 40
2.0
 40
3.0
 40
3.0
 40
3.0
 40
4.0
 40
4.0
 40
4.0
 40
5.0
 40
5.0
 40
5.0
 40
6.0
 40
6.0
 40
6.0
 40
7.0
 40
7.0
 40
7.0
 40
8.0
 40
8.0
 40
8.0
 40
8.0
 10
144.3812434334306
 20
725.6630577560194
 30
0.0
 10
144.3812434334306
 20
724.3047970725984
 30
0.0
 10
144.834764373487
 20
723.6256667308863
 30
0.0
 10
146.2482763389447
 20
723.6256667308863
 30
0.0
 10
146.2482763389447
 20
723.6256667308863
 30
0.0
 10
147.3509998429448
 20
723.6256667308863
 30
0.0
 10
147.3509998429448
 20
723.6256667308863
 30
0.0
 10
147.3509998429448
 20
723.6256667308863
 30
0.0
 10
147.3509998429448
 20
721.8737406629484
 30
0.0
 10
147.3509998429448
 20
721.8737406629484
 30
0.0
 10
147.3509998429448
 20
721.8737406629484
 30
0.0
 10
145.8799344586957
 20
721.8737406629484
 30
0.0
 10
145.8799344586957
 20
721.8737406629484
 30
0.0
 10
143.448878049045
 20
721.8737406629484
 30
0.0
 10
142.3461545450494
 20
723.4576107480234
 30
0.0
 10
142.3461545450494
 20
725.5778786962113
 30
0.0
 10
142.3461545450494
 20
725.5778786962113
 30
0.0
 10
142.3461545450494
 20
742.0036244186
 30
0.0
 10
142.3461545450494
 20
742.0036244186
 30
0.0
 10
142.3461545450494
 20
742.0036244186
 30
0.0
 10
144.3812434334306
 20
742.0036244186
 30
0.0
 10
144.3812434334306
 20
742.0036244186
 30
0.0
 10
144.3812434334306
 20
742.0036244186
 30
0.0
 10
144.3812434334306
 20
725.6630577560194
 30
0.0
 10
144.3812434334306
 20
725.6630577560194
 30
0.0
  0
SPLINE
  5
D1
330
C2
100
AcDbEntity
  8
Layer 1
 62
    40
370
    13
100
AcDbSpline
210
0.0
220
0.0
230
1.0
 70
    11
 71
     3
 72
    26
 73
    22
 74
     0
 42
0.0000000001
 43
0.0000000001
 12
1.0
 22
0.0
 32
0.0
 13
1.0
 23
0.0
 33
0.0
 40
0.0
 40
0.0
 40
0.0
 40
0.0
 40
1.0
 40
1.0
 40
1.0
 40
2.0
 40
2.0
 40
2.0
 40
3.0
 40
3.0
 40
3.0
 40
4.0
 40
4.0
 40
4.0
 40
5.0
 40
5.0
 40
5.0
 40
6.0
 40
6.0
 40
6.0
 40
7.0
 40
7.0
 40
7.0
 40
7.0
 10
165.7911152229486
 20
742.0036244186
 30
0.0
 10
169.2972694955751
 20
742.0036244186
 30
0.0
 10
171.7283259052251
 20
739.9961611712373
 30
0.0
 10
171.7283259052251
 20
736.6327393772075
 30
0.0
 10
171.7283259052251
 20
734.5124714290199
 30
0.0
 10
170.4575464183625
 20
732.8434222841403
 30
0.0
 10
168.7608716324628
 20
732.2218453612159
 30
0.0
 10
170.6831558200168
 20
731.5150893784904
 30
0.0
 10
172.0414165034346
 20
729.8460402336037
 30
0.0
 10
172.0414165034346
 20
727.4426094649742
 30
0.0
 10
172.0414165034346
 20
723.7960248505027
 30
0.0
 10
169.6080579570371
 20
721.8737406629484
 30
0.0
 10
166.0466524023708
 20
721.8737406629484
 30
0.0
 10
166.0466524023708
 20
721.8737406629484
 30
0.0
 10
158.2147831735608
 20
721.8737406629484
 30
0.0
 10
158.2147831735608
 20
721.8737406629484
 30
0.0
 10
158.2147831735608
 20
721.8737406629484
 30
0.0
 10
158.2147831735608
 20
742.0036244186
 30
0.0
 10
158.2147831735608
 20
742.0036244186
 30
0.0
 10
158.2147831735608
 20
742.0036244186
 30
0.0
 10
165.7911152229486
 20
742.0036244186
 30
0.0
 10
165.7911152229486
 20
742.0036244186
 30
0.0
  0
SPLINE
  5
D2
330
C2
100
AcDbEntity
  8
Layer 1
 62
    40
370
    13
100
AcDbSpline
210
0.0
220
0.0
230
1.0
 70
    11
 71
     3
 72
    20
 73
    16
 74
     0
 42
0.0000000001
 43
0.0000000001
 12
1.0
 22
0.0
 32
0.0
 13
1.0
 23
0.0
 33
0.0
 40
0.0
 40
0.0
 40
0.0
 40
0.0
 40
1.0
 40
1.0
 40
1.0
 40
2.0
 40
2.0
 40
2.0
 40
3.0
 40
3.0
 40
3.0
 40
4.0
 40
4.0
 40
4.0
 40
5.0
 40
5.0
 40
5.0
 40
5.0
 10
160.3626767627646
 20
740.0813402310457
 30
0.0
 10
160.3626767627646
 20
740.0813402310457
 30
0.0
 10
160.3626767627646
 20
733.0989594635615
 30
0.0
 10
160.3626767627646
 20
733.0989594635615
 30
0.0
 10
160.3626767627646
 20
733.0989594635615
 30
0.0
 10
165.6230592400819
 20
733.0989594635615
 30
0.0
 10
165.6230592400819
 20
733.0989594635615
 30
0.0
 10
167.856131889098
 20
733.0989594635615
 30
0.0
 10
169.5804323160167
 20
734.2016829675574
 30
0.0
 10
169.5804323160167
 20
736.605113736187
 30
0.0
 10
169.5804323160167
 20
739.0062423680666
 30
0.0
 10
167.856131889098
 20
740.0813402310457
 30
0.0
 10
165.6230592400819
 20
740.0813402310457
 30
0.0
 10
165.6230592400819
 20
740.0813402310457
 30
0.0
 10
160.3626767627646
 20
740.0813402310457
 30
0.0
 10
160.3626767627646
 20
740.0813402310457
 30
0.0
  0
SPLINE
  5
D3
330
C2
100
AcDbEntity
  8
Layer 1
 62
    40
370
    13
100
AcDbSpline
210
0.0
220
0.0
230
1.0
 70
    11
 71
     3
 72
    20
 73
    16
 74
     0
 42
0.0000000001
 43
0.0000000001
 12
1.0
 22
0.0
 32
0.0
 13
1.0
 23
0.0
 33
0.0
 40
0.0
 40
0.0
 40
0.0
 40
0.0
 40
1.0
 40
1.0
 40
1.0
 40
2.0
 40
2.0
 40
2.0
 40
3.0
 40
3.0
 40
3.0
 40
4.0
 40
4.0
 40
4.0
 40
5.0
 40
5.0
 40
5.0
 40
5.0
 10
160.3626767627646
 20
731.1766752760072
 30
0.0
 10
160.3626767627646
 20
731.1766752760072
 30
0.0
 10
160.3626767627646
 20
723.7960248505027
 30
0.0
 10
160.3626767627646
 20
723.7960248505027
 30
0.0
 10
160.3626767627646
 20
723.7960248505027
 30
0.0
 10
165.8486686417363
 20
723.7960248505027
 30
0.0
 10
165.8486686417363
 20
723.7960248505027
 30
0.0
 10
168.3372784701745
 20
723.7960248505027
 30
0.0
 10
169.8912207774788
 20
725.2371624569782
 30
0.0
 10
169.8912207774788
 20
727.5001628837654
 30
0.0
 10
169.8912207774788
 20
729.7608611737954
 30
0.0
 10
168.3372784701745
 20
731.1766752760072
 30
0.0
 10
165.8486686417363
 20
731.1766752760072
 30
0.0
 10
165.8486686417363
 20
731.1766752760072
 30
0.0
 10
160.3626767627646
 20
731.1766752760072
 30
0.0
 10
160.3626767627646
 20
731.1766752760072
 30
0.0
  0
SPLINE
  5
D4
330
C2
100
AcDbEntity
  8
Layer 1
 62
    40
370
    13
100
AcDbSpline
210
0.0
220
0.0
230
1.0
 70
    11
 71
     3
 72
    35
 73
    31
 74
     0
 42
0.0000000001
 43
0.0000000001
 12
1.0
 22
0.0
 32
0.0
 13
1.0
 23
0.0
 33
0.0
 40
0.0
 40
0.0
 40
0.0
 40
0.0
 40
1.0
 40
1.0
 40
1.0
 40
2.0
 40
2.0
 40
2.0
 40
3.0
 40
3.0
 40
3.0
 40
4.0
 40
4.0
 40
4.0
 40
5.0
 40
5.0
 40
5.0
 40
6.0
 40
6.0
 40
6.0
 40
7.0
 40
7.0
 40
7.0
 40
8.0
 40
8.0
 40
8.0
 40
9.0
 40
9.0
 40
9.0
 40
10.0
 40
10.0
 40
10.0
 40
10.0
 10
186.0176887221643
 20
734.6529017708658
 30
0.0
 10
186.0176887221643
 20
734.6529017708658
 30
0.0
 10
184.5189976968992
 20
733.1265851045823
 30
0.0
 10
184.5189976968992
 20
733.1265851045823
 30
0.0
 10
183.7546882953807
 20
733.8908945060989
 30
0.0
 10
183.1883626544968
 20
734.1441295487698
 30
0.0
 10
182.115566928269
 20
734.1441295487698
 30
0.0
 10
180.0804780398879
 20
734.1441295487698
 30
0.0
 10
178.7797707752574
 20
732.5326338226779
 30
0.0
 10
178.7797707752574
 20
730.4123658744871
 30
0.0
 10
178.7797707752574
 20
730.4123658744871
 30
0.0
 10
178.7797707752574
 20
721.8737406629484
 30
0.0
 10
178.7797707752574
 20
721.8737406629484
 30
0.0
 10
178.7797707752574
 20
721.8737406629484
 30
0.0
 10
176.7423797501243
 20
721.8737406629484
 30
0.0
 10
176.7423797501243
 20
721.8737406629484
 30
0.0
 10
176.7423797501243
 20
721.8737406629484
 30
0.0
 10
176.7423797501243
 20
735.7832509158828
 30
0.0
 10
176.7423797501243
 20
735.7832509158828
 30
0.0
 10
176.7423797501243
 20
735.7832509158828
 30
0.0
 10
178.7797707752574
 20
735.7832509158828
 30
0.0
 10
178.7797707752574
 20
735.7832509158828
 30
0.0
 10
178.7797707752574
 20
735.7832509158828
 30
0.0
 10
178.7797707752574
 20
734.0865761299822
 30
0.0
 10
178.7797707752574
 20
734.0865761299822
 30
0.0
 10
179.5417780400237
 20
735.2468530527699
 30
0.0
 10
181.0680947063085
 20
735.9536090354957
 30
0.0
 10
182.6795904324004
 20
735.9536090354957
 30
0.0
 10
184.0102254748029
 20
735.9536090354957
 30
0.0
 10
185.0277699189911
 20
735.6428205740365
 30
0.0
 10
186.0176887221643
 20
734.6529017708658
 30
0.0
  0
SPLINE
  5
D5
330
C2
100
AcDbEntity
  8
Layer 1
 62
    40
370
    13
100
AcDbSpline
210
0.0
220
0.0
230
1.0
 70
    11
 71
     3
 72
    47
 73
    43
 74
     0
 42
0.0000000001
 43
0.0000000001
 12
1.0
 22
0.0
 32
0.0
 13
1.0
 23
0.0
 33
0.0
 40
0.0
 40
0.0
 40
0.0
 40
0.0
 40
1.0
 40
1.0
 40
1.0
 40
2.0
 40
2.0
 40
2.0
 40
3.0
 40
3.0
 40
3.0
 40
4.0
 40
4.0
 40
4.0
 40
5.0
 40
5.0
 40
5.0
 40
6.0
 40
6.0
 40
6.0
 40
7.0
 40
7.0
 40
7.0
 40
8.0
 40
8.0
 40
8.0
 40
9.0
 40
9.0
 40
9.0
 40
10.0
 40
10.0
 40
10.0
 40
11.0
 40
11.0
 40
11.0
 40
12.0
 40
12.0
 40
12.0
 40
13.0
 40
13.0
 40
13.0
 40
14.0
 40
14.0
 40
14.0
 40
14.0
 10
198.294984018238
 20
731.3171056178533
 30
0.0
 10
198.294984018238
 20
731.3171056178533
 30
0.0
 10
198.294984018238
 20
721.8737406629484
 30
0.0
 10
198.294984018238
 20
721.8737406629484
 30
0.0
 10
198.294984018238
 20
721.8737406629484
 30
0.0
 10
196.259895129861
 20
721.8737406629484
 30
0.0
 10
196.259895129861
 20
721.8737406629484
 30
0.0
 10
196.259895129861
 20
721.8737406629484
 30
0.0
 10
196.259895129861
 20
723.202073568599
 30
0.0
 10
196.259895129861
 20
723.202073568599
 30
0.0
 10
195.1571716258609
 20
722.0993500646027
 30
0.0
 10
194.1096994039004
 20
721.7033825433323
 30
0.0
 10
192.2449686351385
 20
721.7033825433323
 30
0.0
 10
190.3226844475845
 20
721.7033825433323
 30
0.0
 10
189.2752122256243
 20
722.0440987825651
 30
0.0
 10
188.3152212002231
 20
722.9764641669485
 30
0.0
 10
187.6084652174919
 20
723.655594508657
 30
0.0
 10
187.2677489782629
 20
724.7007645938656
 30
0.0
 10
187.2677489782629
 20
725.8034880978619
 30
0.0
 10
187.2677489782629
 20
728.2644722852855
 30
0.0
 10
188.9943515419339
 20
729.8184145925827
 30
0.0
 10
192.1022361565393
 20
729.8184145925827
 30
0.0
 10
192.1022361565393
 20
729.8184145925827
 30
0.0
 10
196.259895129861
 20
729.8184145925827
 30
0.0
 10
196.259895129861
 20
729.8184145925827
 30
0.0
 10
196.259895129861
 20
729.8184145925827
 30
0.0
 10
196.259895129861
 20
731.1467474982333
 30
0.0
 10
196.259895129861
 20
731.1467474982333
 30
0.0
 10
196.259895129861
 20
733.1542107455956
 30
0.0
 10
195.2699763266881
 20
734.2016829675574
 30
0.0
 10
192.6961874384427
 20
734.2016829675574
 30
0.0
 10
190.9442613705039
 20
734.2016829675574
 30
0.0
 10
190.0395216271425
 20
733.7481620274993
 30
0.0
 10
189.1900331658169
 20
732.5901872414655
 30
0.0
 10
189.1900331658169
 20
732.5901872414655
 30
0.0
 10
187.8064489781268
 20
733.8609667283285
 30
0.0
 10
187.8064489781268
 20
733.8609667283285
 30
0.0
 10
189.0219771829499
 20
735.4724624544205
 30
0.0
 10
190.4354891484114
 20
735.9536090354957
 30
0.0
 10
192.7261152162147
 20
735.9536090354957
 30
0.0
 10
196.4855045315108
 20
735.9536090354957
 30
0.0
 10
198.294984018238
 20
734.3144876683828
 30
0.0
 10
198.294984018238
 20
731.3171056178533
 30
0.0
  0
SPLINE
  5
D6
330
C2
100
AcDbEntity
  8
Layer 1
 62
    40
370
    13
100
AcDbSpline
210
0.0
220
0.0
230
1.0
 70
    11
 71
     3
 72
    23
 73
    19
 74
     0
 42
0.0000000001
 43
0.0000000001
 12
1.0
 22
0.0
 32
0.0
 13
1.0
 23
0.0
 33
0.0
 40
0.0
 40
0.0
 40
0.0
 40
0.0
 40
1.0
 40
1.0
 40
1.0
 40
2.0
 40
2.0
 40
2.0
 40
3.0
 40
3.0
 40
3.0
 40
4.0
 40
4.0
 40
4.0
 40
5.0
 40
5.0
 40
5.0
 40
6.0
 40
6.0
 40
6.0
 40
6.0
 10
192.3853989769813
 20
728.2920979262992
 30
0.0
 10
190.2927566698131
 20
728.2920979262992
 30
0.0
 10
189.2475865846042
 20
727.4725372427446
 30
0.0
 10
189.2475865846042
 20
725.8311137388823
 30
0.0
 10
189.2475865846042
 20
724.2196180127903
 30
0.0
 10
190.2375053877771
 20
723.4576107480234
 30
0.0
 10
192.4705780367884
 20
723.4576107480234
 30
0.0
 10
193.6308549595757
 20
723.4576107480234
 30
0.0
 10
194.6483994037684
 20
723.5704154488521
 30
0.0
 10
195.5531391471294
 20
724.3899761324033
 30
0.0
 10
196.0342857282066
 20
724.8434970724613
 30
0.0
 10
196.259895129861
 20
725.633129978249
 30
0.0
 10
196.259895129861
 20
726.7934069010361
 30
0.0
 10
196.259895129861
 20
726.7934069010361
 30
0.0
 10
196.259895129861
 20
728.2920979262992
 30
0.0
 10
196.259895129861
 20
728.2920979262992
 30
0.0
 10
196.259895129861
 20
728.2920979262992
 30
0.0
 10
192.3853989769813
 20
728.2920979262992
 30
0.0
 10
192.3853989769813
 20
728.2920979262992
 30
0.0
  0
SPLINE
  5
D7
330
C2
100
AcDbEntity
  8
Layer 1
 62
    40
370
    13
100
AcDbSpline
210
0.0
220
0.0
230
1.0
 70
    11
 71
     3
 72
    41
 73
    37
 74
     0
 42
0.0000000001
 43
0.0000000001
 12
1.0
 22
0.0
 32
0.0
 13
1.0
 23
0.0
 33
0.0
 40
0.0
 40
0.0
 40
0.0
 40
0.0
 40
1.0
 40
1.0
 40
1.0
 40
2.0
 40
2.0
 40
2.0
 40
3.0
 40
3.0
 40
3.0
 40
4.0
 40
4.0
 40
4.0
 40
5.0
 40
5.0
 40
5.0
 40
6.0
 40
6.0
 40
6.0
 40
7.0
 40
7.0
 40
7.0
 40
8.0
 40
8.0
 40
8.0
 40
9.0
 40
9.0
 40
9.0
 40
10.0
 40
10.0
 40
10.0
 40
11.0
 40
11.0
 40
11.0
 40
12.0
 40
12.0
 40
12.0
 40
12.0
 10
213.2588729033874
 20
733.8908945060989
 30
0.0
 10
213.2588729033874
 20
733.8908945060989
 30
0.0
 10
211.8729865789456
 20
732.5901872414655
 30
0.0
 10
211.8729865789456
 20
732.5901872414655
 30
0.0
 10
210.8278164937374
 20
733.7481620274993
 30
0.0
 10
210.0082558101834
 20
734.1441295487698
 30
0.0
 10
208.6776207677813
 20
734.1441295487698
 30
0.0
 10
207.3216622211116
 20
734.1441295487698
 30
0.0
 10
206.1913130760956
 20
733.6077316856572
 30
0.0
 10
205.4546293155929
 20
732.5602594636952
 30
0.0
 10
204.8054267516535
 20
731.6555197203326
 30
0.0
 10
204.5498895722319
 20
730.5827239941032
 30
0.0
 10
204.5498895722319
 20
728.8284957894156
 30
0.0
 10
204.5498895722319
 20
727.076569721478
 30
0.0
 10
204.8054267516535
 20
726.0014718584952
 30
0.0
 10
205.4546293155929
 20
725.0967321151361
 30
0.0
 10
206.1913130760956
 20
724.0515620299275
 30
0.0
 10
207.3216622211116
 20
723.5128620300575
 30
0.0
 10
208.6776207677813
 20
723.5128620300575
 30
0.0
 10
210.0082558101834
 20
723.5128620300575
 30
0.0
 10
210.8278164937374
 20
723.9387573290984
 30
0.0
 10
211.8729865789456
 20
725.0967321151361
 30
0.0
 10
211.8729865789456
 20
725.0967321151361
 30
0.0
 10
213.2588729033874
 20
723.7683992094856
 30
0.0
 10
213.2588729033874
 20
723.7683992094856
 30
0.0
 10
211.8177352969103
 20
722.212154765428
 30
0.0
 10
210.5999049553349
 20
721.7033825433323
 30
0.0
 10
208.6776207677813
 20
721.7033825433323
 30
0.0
 10
205.171466495151
 20
721.7033825433323
 30
0.0
 10
202.5148006838504
 20
724.0791876709446
 30
0.0
 10
202.5148006838504
 20
728.8284957894156
 30
0.0
 10
202.5148006838504
 20
733.5778039078865
 30
0.0
 10
205.171466495151
 20
735.9536090354957
 30
0.0
 10
208.6776207677813
 20
735.9536090354957
 30
0.0
 10
210.5999049553349
 20
735.9536090354957
 30
0.0
 10
211.8177352969103
 20
735.4448368134032
 30
0.0
 10
213.2588729033874
 20
733.8908945060989
 30
0.0
  0
POLYLINE
  5
D8
330
C2
100
AcDbEntity
  8
Layer 1
 62
    40
370
    13
100
AcDb2dPolyline
 66
     1
 10
0.0
 20
0.0
 30
0.0
  0
VERTEX
  5
D9
330
D8
100
AcDbEntity
  8
Layer 1
 62
    40
370
    13
100
AcDbVertex
100
AcDb2dVertex
 10
219.1753643548998
 20
728.545332968974
 30
0.0
  0
VERTEX
  5
DA
330
D8
100
AcDbEntity
  8
Layer 1
 62
    40
370
    13
100
AcDbVertex
100
AcDb2dVertex
 10
225.4509891396536
 20
735.7832509158828
 30
0.0
  0
VERTEX
  5
DB
330
D8
100
AcDbEntity
  8
Layer 1
 62
    40
370
    13
100
AcDbVertex
100
AcDb2dVertex
 10
227.9948502501312
 20
735.7832509158828
 30
0.0
  0
VERTEX
  5
DC
330
D8
100
AcDbEntity
  8
Layer 1
 62
    40
370
    13
100
AcDbVertex
100
AcDb2dVertex
 10
223.2731677726784
 20
730.4676171565279
 30
0.0
  0
VERTEX
  5
DD
330
D8
100
AcDbEntity
  8
Layer 1
 62
    40
370
    13
100
AcDbVertex
100
AcDb2dVertex
 10
228.8144109336851
 20
721.8737406629484
 30
0.0
  0
VERTEX
  5
DE
330
D8
100
AcDbEntity
  8
Layer 1
 62
    40
370
    13
100
AcDbVertex
100
AcDb2dVertex
 10
226.2981754642273
 20
721.8737406629484
 30
0.0
  0
VERTEX
  5
DF
330
D8
100
AcDbEntity
  8
Layer 1
 62
    40
370
    13
100
AcDbVertex
100
AcDb2dVertex
 10
221.8895835849879
 20
728.998853909032
 30
0.0
  0
VERTEX
  5
E0
330
D8
100
AcDbEntity
  8
Layer 1
 62
    40
370
    13
100
AcDbVertex
100
AcDb2dVertex
 10
219.1753643548998
 20
725.8886671576699
 30
0.0
  0
VERTEX
  5
E1
330
D8
100
AcDbEntity
  8
Layer 1
 62
    40
370
    13
100
AcDbVertex
100
AcDb2dVertex
 10
219.1753643548998
 20
721.8737406629484
 30
0.0
  0
VERTEX
  5
E2
330
D8
100
AcDbEntity
  8
Layer 1
 62
    40
370
    13
100
AcDbVertex
100
AcDb2dVertex
 10
217.137973329767
 20
721.8737406629484
 30
0.0
  0
VERTEX
  5
E3
330
D8
100
AcDbEntity
  8
Layer 1
 62
    40
370
    13
100
AcDbVertex
100
AcDb2dVertex
 10
217.137973329767
 20
742.0036244186
 30
0.0
  0
VERTEX
  5
E4
330
D8
100
AcDbEntity
  8
Layer 1
 62
    40
370
    13
100
AcDbVertex
100
AcDb2dVertex
 10
219.1753643548998
 20
742.0036244186
 30
0.0
  0
VERTEX
  5
E5
330
D8
100
AcDbEntity
  8
Layer 1
 62
    40
370
    13
100
AcDbVertex
100
AcDb2dVertex
 10
219.1753643548998
 20
728.545332968974
 30
0.0
  0
SEQEND
  5
E6
330
D8
100
AcDbEntity
  8
Layer 1
 62
    40
370
    13
  0
SPLINE
  5
E7
330
C2
100
AcDbEntity
  8
Layer 1
 62
    40
370
    13
100
AcDbSpline
210
0.0
220
0.0
230
1.0
 70
    11
 71
     3
 72
    32
 73
    28
 74
     0
 42
0.0000000001
 43
0.0000000001
 12
1.0
 22
0.0
 32
0.0
 13
1.0
 23
0.0
 33
0.0
 40
0.0
 40
0.0
 40
0.0
 40
0.0
 40
1.0
 40
1.0
 40
1.0
 40
2.0
 40
2.0
 40
2.0
 40
3.0
 40
3.0
 40
3.0
 40
4.0
 40
4.0
 40
4.0
 40
5.0
 40
5.0
 40
5.0
 40
6.0
 40
6.0
 40
6.0
 40
7.0
 40
7.0
 40
7.0
 40
8.0
 40
8.0
 40
8.0
 40
9.0
 40
9.0
 40
9.0
 40
9.0
 10
241.8283899902613
 20
729.1968376696656
 30
0.0
 10
241.8283899902613
 20
729.1968376696656
 30
0.0
 10
241.8283899902613
 20
728.2920979262992
 30
0.0
 10
241.8283899902613
 20
728.2920979262992
 30
0.0
 10
241.8283899902613
 20
728.2920979262992
 30
0.0
 10
232.4425784541467
 20
728.2920979262992
 30
0.0
 10
232.4425784541467
 20
728.2920979262992
 30
0.0
 10
232.4425784541467
 20
725.2371624569782
 30
0.0
 10
233.856090419604
 20
723.4852363890403
 30
0.0
 10
236.5426840086762
 20
723.4852363890403
 30
0.0
 10
238.1541797347682
 20
723.4852363890403
 30
0.0
 10
239.0865451191534
 20
723.9663829701155
 30
0.0
 10
240.1892686231493
 20
725.0691064741153
 30
0.0
 10
240.1892686231493
 20
725.0691064741153
 30
0.0
 10
241.5751549475914
 20
723.8535782692938
 30
0.0
 10
241.5751549475914
 20
723.8535782692938
 30
0.0
 10
240.1616429821293
 20
722.440066303832
 30
0.0
 10
238.8333100764793
 20
721.7033825433323
 30
0.0
 10
236.4851305898886
 20
721.7033825433323
 30
0.0
 10
232.7809925566237
 20
721.7033825433323
 30
0.0
 10
230.4074895657655
 20
723.9088295513279
 30
0.0
 10
230.4074895657655
 20
728.8284957894156
 30
0.0
 10
230.4074895657655
 20
733.352194506229
 30
0.0
 10
232.5830087959933
 20
735.9536090354957
 30
0.0
 10
236.1190908463915
 20
735.9536090354957
 30
0.0
 10
239.7380498198448
 20
735.9536090354957
 30
0.0
 10
241.8283899902613
 20
733.3798201472497
 30
0.0
 10
241.8283899902613
 20
729.1968376696656
 30
0.0
  0
SPLINE
  5
E8
330
C2
100
AcDbEntity
  8
Layer 1
 62
    40
370
    13
100
AcDbSpline
210
0.0
220
0.0
230
1.0
 70
    11
 71
     3
 72
    20
 73
    16
 74
     0
 42
0.0000000001
 43
0.0000000001
 12
1.0
 22
0.0
 32
0.0
 13
1.0
 23
0.0
 33
0.0
 40
0.0
 40
0.0
 40
0.0
 40
0.0
 40
1.0
 40
1.0
 40
1.0
 40
2.0
 40
2.0
 40
2.0
 40
3.0
 40
3.0
 40
3.0
 40
4.0
 40
4.0
 40
4.0
 40
5.0
 40
5.0
 40
5.0
 40
5.0
 10
232.8661716164353
 20
732.1366663014074
 30
0.0
 10
232.5277575139541
 20
731.4022846776613
 30
0.0
 10
232.500131872934
 20
730.9487637376033
 30
0.0
 10
232.4425784541467
 20
729.8184145925827
 30
0.0
 10
232.4425784541467
 20
729.8184145925827
 30
0.0
 10
239.8209267429006
 20
729.8184145925827
 30
0.0
 10
239.8209267429006
 20
729.8184145925827
 30
0.0
 10
239.7380498198448
 20
730.9487637376033
 30
0.0
 10
239.7081220420731
 20
731.4022846776613
 30
0.0
 10
239.3697079395954
 20
732.1366663014074
 30
0.0
 10
238.7757566576917
 20
733.4097479250237
 30
0.0
 10
237.6154797349043
 20
734.2293086085747
 30
0.0
 10
236.1190908463915
 20
734.2293086085747
 30
0.0
 10
234.6203998211226
 20
734.2293086085747
 30
0.0
 10
233.4601228983349
 20
733.4097479250237
 30
0.0
 10
232.8661716164353
 20
732.1366663014074
 30
0.0
  0
SPLINE
  5
E9
330
C2
100
AcDbEntity
  8
Layer 1
 62
    40
370
    13
100
AcDbSpline
210
0.0
220
0.0
230
1.0
 70
    11
 71
     3
 72
    53
 73
    49
 74
     0
 42
0.0000000001
 43
0.0000000001
 12
1.0
 22
0.0
 32
0.0
 13
1.0
 23
0.0
 33
0.0
 40
0.0
 40
0.0
 40
0.0
 40
0.0
 40
1.0
 40
1.0
 40
1.0
 40
2.0
 40
2.0
 40
2.0
 40
3.0
 40
3.0
 40
3.0
 40
4.0
 40
4.0
 40
4.0
 40
5.0
 40
5.0
 40
5.0
 40
6.0
 40
6.0
 40
6.0
 40
7.0
 40
7.0
 40
7.0
 40
8.0
 40
8.0
 40
8.0
 40
9.0
 40
9.0
 40
9.0
 40
10.0
 40
10.0
 40
10.0
 40
11.0
 40
11.0
 40
11.0
 40
12.0
 40
12.0
 40
12.0
 40
13.0
 40
13.0
 40
13.0
 40
14.0
 40
14.0
 40
14.0
 40
15.0
 40
15.0
 40
15.0
 40
16.0
 40
16.0
 40
16.0
 40
16.0
 10
248.5391186210602
 20
735.7832509158828
 30
0.0
 10
248.5391186210602
 20
735.7832509158828
 30
0.0
 10
251.5065728938263
 20
735.7832509158828
 30
0.0
 10
251.5065728938263
 20
735.7832509158828
 30
0.0
 10
251.5065728938263
 20
735.7832509158828
 30
0.0
 10
251.5065728938263
 20
734.2293086085747
 30
0.0
 10
251.5065728938263
 20
734.2293086085747
 30
0.0
 10
251.5065728938263
 20
734.2293086085747
 30
0.0
 10
248.5391186210602
 20
734.2293086085747
 30
0.0
 10
248.5391186210602
 20
734.2293086085747
 30
0.0
 10
248.5391186210602
 20
734.2293086085747
 30
0.0
 10
248.5391186210602
 20
725.6630577560194
 30
0.0
 10
248.5391186210602
 20
725.6630577560194
 30
0.0
 10
248.5391186210602
 20
724.362350491386
 30
0.0
 10
249.1330699029636
 20
723.6256667308863
 30
0.0
 10
250.4337771675982
 20
723.6256667308863
 30
0.0
 10
250.4337771675982
 20
723.6256667308863
 30
0.0
 10
251.5065728938263
 20
723.6256667308863
 30
0.0
 10
251.5065728938263
 20
723.6256667308863
 30
0.0
 10
251.5065728938263
 20
723.6256667308863
 30
0.0
 10
251.5065728938263
 20
721.8737406629484
 30
0.0
 10
251.5065728938263
 20
721.8737406629484
 30
0.0
 10
251.5065728938263
 20
721.8737406629484
 30
0.0
 10
250.0654352873485
 20
721.8737406629484
 30
0.0
 10
250.0654352873485
 20
721.8737406629484
 30
0.0
 10
247.6896301597342
 20
721.8737406629484
 30
0.0
 10
246.5040297326829
 20
723.5427898078318
 30
0.0
 10
246.5040297326829
 20
725.6055043372282
 30
0.0
 10
246.5040297326829
 20
725.6055043372282
 30
0.0
 10
246.5040297326829
 20
734.2293086085747
 30
0.0
 10
246.5040297326829
 20
734.2293086085747
 30
0.0
 10
246.5040297326829
 20
734.2293086085747
 30
0.0
 10
244.749801527992
 20
734.2293086085747
 30
0.0
 10
244.749801527992
 20
734.2293086085747
 30
0.0
 10
244.749801527992
 20
734.2293086085747
 30
0.0
 10
244.749801527992
 20
735.7832509158828
 30
0.0
 10
244.749801527992
 20
735.7832509158828
 30
0.0
 10
244.749801527992
 20
735.7832509158828
 30
0.0
 10
246.5040297326829
 20
735.7832509158828
 30
0.0
 10
246.5040297326829
 20
735.7832509158828
 30
0.0
 10
246.5040297326829
 20
735.7832509158828
 30
0.0
 10
246.5040297326829
 20
740.0537145900249
 30
0.0
 10
246.5040297326829
 20
740.0537145900249
 30
0.0
 10
246.5040297326829
 20
740.0537145900249
 30
0.0
 10
248.5391186210602
 20
740.0537145900249
 30
0.0
 10
248.5391186210602
 20
740.0537145900249
 30
0.0
 10
248.5391186210602
 20
740.0537145900249
 30
0.0
 10
248.5391186210602
 20
735.7832509158828
 30
0.0
 10
248.5391186210602
 20
735.7832509158828
 30
0.0
  0
SPLINE
  5
EA
330
C2
100
AcDbEntity
  8
Layer 1
 62
    40
370
    13
100
AcDbSpline
210
0.0
220
0.0
230
1.0
 70
    11
 71
     3
 72
    53
 73
    49
 74
     0
 42
0.0000000001
 43
0.0000000001
 12
1.0
 22
0.0
 32
0.0
 13
1.0
 23
0.0
 33
0.0
 40
0.0
 40
0.0
 40
0.0
 40
0.0
 40
1.0
 40
1.0
 40
1.0
 40
2.0
 40
2.0
 40
2.0
 40
3.0
 40
3.0
 40
3.0
 40
4.0
 40
4.0
 40
4.0
 40
5.0
 40
5.0
 40
5.0
 40
6.0
 40
6.0
 40
6.0
 40
7.0
 40
7.0
 40
7.0
 40
8.0
 40
8.0
 40
8.0
 40
9.0
 40
9.0
 40
9.0
 40
10.0
 40
10.0
 40
10.0
 40
11.0
 40
11.0
 40
11.0
 40
12.0
 40
12.0
 40
12.0
 40
13.0
 40
13.0
 40
13.0
 40
14.0
 40
14.0
 40
14.0
 40
15.0
 40
15.0
 40
15.0
 40
16.0
 40
16.0
 40
16.0
 40
16.0
 10
264.856663916128
 20
734.4549180102323
 30
0.0
 10
264.856663916128
 20
734.4549180102323
 30
0.0
 10
263.5283310104774
 20
733.1265851045823
 30
0.0
 10
263.5283310104774
 20
733.1265851045823
 30
0.0
 10
262.5384122073052
 20
733.8908945060989
 30
0.0
 10
261.2653305836903
 20
734.2293086085747
 30
0.0
 10
259.8241929772125
 20
734.2293086085747
 30
0.0
 10
257.7891040888359
 20
734.2293086085747
 30
0.0
 10
256.7140062258562
 20
733.3798201472497
 30
0.0
 10
256.7140062258562
 20
731.9386825407742
 30
0.0
 10
256.7140062258562
 20
730.6955286949322
 30
0.0
 10
257.4783156273745
 20
730.0739517720114
 30
0.0
 10
259.2026160542932
 20
729.9035936523911
 30
0.0
 10
259.2026160542932
 20
729.9035936523911
 30
0.0
 10
261.3781352845172
 20
729.7056098917575
 30
0.0
 10
261.3781352845172
 20
729.7056098917575
 30
0.0
 10
263.8114938309197
 20
729.4800004901069
 30
0.0
 10
265.4782408390474
 20
728.5752607467408
 30
0.0
 10
265.4782408390474
 20
725.9462205764611
 30
0.0
 10
265.4782408390474
 20
723.2596269873898
 30
0.0
 10
263.217542549016
 20
721.7033825433323
 30
0.0
 10
259.8241929772125
 20
721.7033825433323
 30
0.0
 10
257.4483878496024
 20
721.7033825433323
 30
0.0
 10
255.6112827218558
 20
722.2420825431949
 30
0.0
 10
254.1125916965908
 20
723.7108457906946
 30
0.0
 10
254.1125916965908
 20
723.7108457906946
 30
0.0
 10
255.470852380013
 20
725.0691064741153
 30
0.0
 10
255.470852380013
 20
725.0691064741153
 30
0.0
 10
256.5436481062411
 20
723.9387573290984
 30
0.0
 10
258.0699647725256
 20
723.4576107480234
 30
0.0
 10
259.7965673361973
 20
723.4576107480234
 30
0.0
 10
262.1148190450159
 20
723.4576107480234
 30
0.0
 10
263.4984032327058
 20
724.2771714315779
 30
0.0
 10
263.4984032327058
 20
725.9162927986903
 30
0.0
 10
263.4984032327058
 20
727.1617487812861
 30
0.0
 10
262.8215750277465
 20
727.8109513452242
 30
0.0
 10
261.1801515238829
 20
727.9513816870699
 30
0.0
 10
261.1801515238829
 20
727.9513816870699
 30
0.0
 10
258.8918275928318
 20
728.1493654477032
 30
0.0
 10
258.8918275928318
 20
728.1493654477032
 30
0.0
 10
256.1776083627398
 20
728.3772769861075
 30
0.0
 10
254.7341686195143
 20
729.5651795499153
 30
0.0
 10
254.7341686195143
 20
731.8834312587366
 30
0.0
 10
254.7341686195143
 20
734.4272923692118
 30
0.0
 10
256.8544365676984
 20
735.9536090354957
 30
0.0
 10
259.8518186182324
 20
735.9536090354957
 30
0.0
 10
261.8592818655937
 20
735.9536090354957
 30
0.0
 10
263.5835822925131
 20
735.4724624544205
 30
0.0
 10
264.856663916128
 20
734.4549180102323
 30
0.0
  0
ENDBLK
  5
C5
330
C2
100
AcDbEntity
  8
0
100
AcDbBlockEnd
  0
BLOCK
  5
ED
330
EB
100
AcDbEntity
  8
0
100
AcDbBlockBegin
  2
block 5
 70
     0
 10
0.0
 20
0.0
 30
0.0
  3
block 5
  1

  0
SPLINE
  5
EF
330
EB
100
AcDbEntity
  8
Layer 1
 62
    40
370
    13
100
AcDbSpline
210
0.0
220
0.0
230
1.0
 70
    11
 71
     3
 72
    26
 73
    22
 74
     0
 42
0.0000000001
 43
0.0000000001
 12
1.0
 22
0.0
 32
0.0
 13
1.0
 23
0.0
 33
0.0
 40
0.0
 40
0.0
 40
0.0
 40
0.0
 40
1.0
 40
1.0
 40
1.0
 40
2.0
 40
2.0
 40
2.0
 40
3.0
 40
3.0
 40
3.0
 40
4.0
 40
4.0
 40
4.0
 40
5.0
 40
5.0
 40
5.0
 40
6.0
 40
6.0
 40
6.0
 40
7.0
 40
7.0
 40
7.0
 40
7.0
 10
29.11846380565441
 20
711.0572006143365
 30
0.0
 10
32.66140000268535
 20
711.0572006143365
 30
0.0
 10
35.11861435753979
 20
709.0285561378471
 30
0.0
 10
35.11861435753979
 20
705.6284191486798
 30
0.0
 10
35.11861435753979
 20
703.4853975020801
 30
0.0
 10
33.83290472244455
 20
701.799540026373
 30
0.0
 10
32.11862520898423
 20
701.1709823550892
 30
0.0
 10
34.06148680789088
 20
700.4566418062227
 30
0.0
 10
35.43297932056884
 20
698.7709565852899
 30
0.0
 10
35.43297932056884
 20
696.3421642681888
 30
0.0
 10
35.43297932056884
 20
692.65625660852
 30
0.0
 10
32.97576496571439
 20
690.7133950096134
 30
0.0
 10
29.37564018362831
 20
690.7133950096134
 30
0.0
 10
29.37564018362831
 20
690.7133950096134
 30
0.0
 10
21.46087781581534
 20
690.7133950096134
 30
0.0
 10
21.46087781581534
 20
690.7133950096134
 30
0.0
 10
21.46087781581534
 20
690.7133950096134
 30
0.0
 10
21.46087781581534
 20
711.0572006143365
 30
0.0
 10
21.46087781581534
 20
711.0572006143365
 30
0.0
 10
21.46087781581534
 20
711.0572006143365
 30
0.0
 10
29.11846380565441
 20
711.0572006143365
 30
0.0
 10
29.11846380565441
 20
711.0572006143365
 30
0.0
  0
SPLINE
  5
F0
330
EB
100
AcDbEntity
  8
Layer 1
 62
    40
370
    13
100
AcDbSpline
210
0.0
220
0.0
230
1.0
 70
    11
 71
     3
 72
    20
 73
    16
 74
     0
 42
0.0000000001
 43
0.0000000001
 12
1.0
 22
0.0
 32
0.0
 13
1.0
 23
0.0
 33
0.0
 40
0.0
 40
0.0
 40
0.0
 40
0.0
 40
1.0
 40
1.0
 40
1.0
 40
2.0
 40
2.0
 40
2.0
 40
3.0
 40
3.0
 40
3.0
 40
4.0
 40
4.0
 40
4.0
 40
5.0
 40
5.0
 40
5.0
 40
5.0
 10
23.63249375494257
 20
709.1141667606555
 30
0.0
 10
23.63249375494257
 20
709.1141667606555
 30
0.0
 10
23.63249375494257
 20
702.056716404347
 30
0.0
 10
23.63249375494257
 20
702.056716404347
 30
0.0
 10
23.63249375494257
 20
702.056716404347
 30
0.0
 10
28.94689805048897
 20
702.056716404347
 30
0.0
 10
28.94689805048897
 20
702.056716404347
 30
0.0
 10
31.20429686719893
 20
702.056716404347
 30
0.0
 10
32.94717067318682
 20
703.171032539051
 30
0.0
 10
32.94717067318682
 20
705.5998248561522
 30
0.0
 10
32.94717067318682
 20
708.0284449184791
 30
0.0
 10
31.20429686719893
 20
709.1141667606555
 30
0.0
 10
28.94689805048897
 20
709.1141667606555
 30
0.0
 10
28.94689805048897
 20
709.1141667606555
 30
0.0
 10
23.63249375494257
 20
709.1141667606555
 30
0.0
 10
23.63249375494257
 20
709.1141667606555
 30
0.0
  0
SPLINE
  5
F1
330
EB
100
AcDbEntity
  8
Layer 1
 62
    40
370
    13
100
AcDbSpline
210
0.0
220
0.0
230
1.0
 70
    11
 71
     3
 72
    20
 73
    16
 74
     0
 42
0.0000000001
 43
0.0000000001
 12
1.0
 22
0.0
 32
0.0
 13
1.0
 23
0.0
 33
0.0
 40
0.0
 40
0.0
 40
0.0
 40
0.0
 40
1.0
 40
1.0
 40
1.0
 40
2.0
 40
2.0
 40
2.0
 40
3.0
 40
3.0
 40
3.0
 40
4.0
 40
4.0
 40
4.0
 40
5.0
 40
5.0
 40
5.0
 40
5.0
 10
23.63249375494257
 20
700.1138548054403
 30
0.0
 10
23.63249375494257
 20
700.1138548054403
 30
0.0
 10
23.63249375494257
 20
692.65625660852
 30
0.0
 10
23.63249375494257
 20
692.65625660852
 30
0.0
 10
23.63249375494257
 20
692.65625660852
 30
0.0
 10
29.1754801359353
 20
692.65625660852
 30
0.0
 10
29.1754801359353
 20
692.65625660852
 30
0.0
 10
31.68988307584489
 20
692.65625660852
 30
0.0
 10
33.2613633814416
 20
694.1135319987807
 30
0.0
 10
33.2613633814416
 20
696.399352853244
 30
0.0
 10
33.2613633814416
 20
698.6851737077072
 30
0.0
 10
31.68988307584489
 20
700.1138548054403
 30
0.0
 10
29.1754801359353
 20
700.1138548054403
 30
0.0
 10
29.1754801359353
 20
700.1138548054403
 30
0.0
 10
23.63249375494257
 20
700.1138548054403
 30
0.0
 10
23.63249375494257
 20
700.1138548054403
 30
0.0
  0
SPLINE
  5
F2
330
EB
100
AcDbEntity
  8
Layer 1
 62
    40
370
    13
100
AcDbSpline
210
0.0
220
0.0
230
1.0
 70
    11
 71
     3
 72
    65
 73
    61
 74
     0
 42
0.0000000001
 43
0.0000000001
 12
1.0
 22
0.0
 32
0.0
 13
1.0
 23
0.0
 33
0.0
 40
0.0
 40
0.0
 40
0.0
 40
0.0
 40
1.0
 40
1.0
 40
1.0
 40
2.0
 40
2.0
 40
2.0
 40
3.0
 40
3.0
 40
3.0
 40
4.0
 40
4.0
 40
4.0
 40
5.0
 40
5.0
 40
5.0
 40
6.0
 40
6.0
 40
6.0
 40
7.0
 40
7.0
 40
7.0
 40
8.0
 40
8.0
 40
8.0
 40
9.0
 40
9.0
 40
9.0
 40
10.0
 40
10.0
 40
10.0
 40
11.0
 40
11.0
 40
11.0
 40
12.0
 40
12.0
 40
12.0
 40
13.0
 40
13.0
 40
13.0
 40
14.0
 40
14.0
 40
14.0
 40
15.0
 40
15.0
 40
15.0
 40
16.0
 40
16.0
 40
16.0
 40
17.0
 40
17.0
 40
17.0
 40
18.0
 40
18.0
 40
18.0
 40
19.0
 40
19.0
 40
19.0
 40
20.0
 40
20.0
 40
20.0
 40
20.0
 10
51.77823485033669
 20
708.9999618453195
 30
0.0
 10
51.77823485033669
 20
708.9999618453195
 30
0.0
 10
50.37832029990543
 20
707.599875040114
 30
0.0
 10
50.37832029990543
 20
707.599875040114
 30
0.0
 10
49.14962699509107
 20
708.7713797598732
 30
0.0
 10
47.74954018988554
 20
709.3713431386294
 30
0.0
 10
45.63511283581344
 20
709.3713431386294
 30
0.0
 10
42.89212781045752
 20
709.3713431386294
 30
0.0
 10
41.32064750486082
 20
707.8570514180878
 30
0.0
 10
41.32064750486082
 20
705.5712305636246
 30
0.0
 10
41.32064750486082
 20
704.5711193442565
 30
0.0
 10
41.60641817536229
 20
703.742573880054
 30
0.0
 10
42.23497584664612
 20
703.1996268315786
 30
0.0
 10
42.86353351792995
 20
702.6568520378775
 30
0.0
 10
43.8350504447704
 20
702.3138927823209
 30
0.0
 10
44.89235024919358
 20
702.1424992819296
 30
0.0
 10
44.89235024919358
 20
702.1424992819296
 30
0.0
 10
47.2637817264653
 20
701.7711179886197
 30
0.0
 10
47.2637817264653
 20
701.7711179886197
 30
0.0
 10
49.14962699509107
 20
701.4853473181183
 30
0.0
 10
50.0353610443488
 20
701.1423880625616
 30
0.0
 10
50.94968938613411
 20
700.3138425983591
 30
0.0
 10
52.03541122831059
 20
699.3709199640462
 30
0.0
 10
52.66414115436869
 20
697.9994274513682
 30
0.0
 10
52.66414115436869
 20
696.3135699756613
 30
0.0
 10
52.66414115436869
 20
692.7420394861027
 30
0.0
 10
49.89256183648519
 20
690.5420015092221
 30
0.0
 10
45.63511283581344
 20
690.5420015092221
 30
0.0
 10
42.60652939473032
 20
690.5420015092221
 30
0.0
 10
40.57771266346668
 20
691.3133583883696
 30
0.0
 10
38.69203964961519
 20
693.2277979495229
 30
0.0
 10
38.69203964961519
 20
693.2277979495229
 30
0.0
 10
40.1491427851016
 20
694.6850733397836
 30
0.0
 10
40.1491427851016
 20
694.6850733397836
 30
0.0
 10
41.83500026080861
 20
692.9992158640766
 30
0.0
 10
43.40648056640533
 20
692.4848631081288
 30
0.0
 10
45.6923014208686
 20
692.4848631081288
 30
0.0
 10
48.69246282419842
 20
692.4848631081288
 30
0.0
 10
50.52111950776903
 20
693.8563556208068
 30
0.0
 10
50.52111950776903
 20
696.2565536453803
 30
0.0
 10
50.52111950776903
 20
697.3422754875568
 30
0.0
 10
50.20675454473998
 20
698.199415244287
 30
0.0
 10
49.521008288401
 20
698.7995508778175
 30
0.0
 10
48.89245061711717
 20
699.3709199640462
 30
0.0
 10
48.32090927611422
 20
699.570907756965
 30
0.0
 10
46.8638061406278
 20
699.7994898424113
 30
0.0
 10
46.8638061406278
 20
699.7994898424113
 30
0.0
 10
44.49220240858181
 20
700.1424490979679
 30
0.0
 10
44.49220240858181
 20
700.1424490979679
 30
0.0
 10
42.89212781045752
 20
700.3996254759418
 30
0.0
 10
41.69220105294501
 20
700.8852116845877
 30
0.0
 10
40.7778727111597
 20
701.685335111037
 30
0.0
 10
39.7491671992641
 20
702.5996634528224
 30
0.0
 10
39.20622015078872
 20
703.8569510501643
 30
0.0
 10
39.20622015078872
 20
705.5140419785695
 30
0.0
 10
39.20622015078872
 20
708.9713675527919
 30
0.0
 10
41.69220105294501
 20
711.2285941147276
 30
0.0
 10
45.72089571339617
 20
711.2285941147276
 30
0.0
 10
48.32090927611422
 20
711.2285941147276
 30
0.0
 10
50.0353610443488
 20
710.5428478583887
 30
0.0
 10
51.77823485033669
 20
708.9999618453195
 30
0.0
  0
SPLINE
  5
F3
330
EB
100
AcDbEntity
  8
Layer 1
 62
    40
370
    13
100
AcDbSpline
210
0.0
220
0.0
230
1.0
 70
    11
 71
     3
 72
    29
 73
    25
 74
     0
 42
0.0000000001
 43
0.0000000001
 12
1.0
 22
0.0
 32
0.0
 13
1.0
 23
0.0
 33
0.0
 40
0.0
 40
0.0
 40
0.0
 40
0.0
 40
1.0
 40
1.0
 40
1.0
 40
2.0
 40
2.0
 40
2.0
 40
3.0
 40
3.0
 40
3.0
 40
4.0
 40
4.0
 40
4.0
 40
5.0
 40
5.0
 40
5.0
 40
6.0
 40
6.0
 40
6.0
 40
7.0
 40
7.0
 40
7.0
 40
8.0
 40
8.0
 40
8.0
 40
8.0
 10
55.7226969261735
 20
696.3135699756613
 30
0.0
 10
55.7226969261735
 20
698.6851737077072
 30
0.0
 10
57.06559514632388
 20
700.2852483058315
 30
0.0
 10
58.7798746597842
 20
701.2567652326719
 30
0.0
 10
57.17980006165991
 20
702.1710935744572
 30
0.0
 10
56.122672512011
 20
703.6567910024712
 30
0.0
 10
56.122672512011
 20
705.7712183565434
 30
0.0
 10
56.122672512011
 20
708.9427732602643
 30
0.0
 10
58.49427624405699
 20
711.2285941147276
 30
0.0
 10
61.72284747805887
 20
711.2285941147276
 30
0.0
 10
64.95159096683503
 20
711.2285941147276
 30
0.0
 10
67.32319469888101
 20
708.9427732602643
 30
0.0
 10
67.32319469888101
 20
705.7712183565434
 30
0.0
 10
67.32319469888101
 20
703.6567910024712
 30
0.0
 10
66.2944891869854
 20
702.1710935744572
 30
0.0
 10
64.69441458886112
 20
701.2567652326719
 30
0.0
 10
66.4088663570957
 20
700.2852483058315
 30
0.0
 10
67.72317028471852
 20
698.6851737077072
 30
0.0
 10
67.72317028471852
 20
696.3135699756613
 30
0.0
 10
67.72317028471852
 20
692.8850109487406
 30
0.0
 10
65.09456242947289
 20
690.5420015092221
 30
0.0
 10
61.72284747805887
 20
690.5420015092221
 30
0.0
 10
58.35130478141912
 20
690.5420015092221
 30
0.0
 10
55.7226969261735
 20
692.8850109487406
 30
0.0
 10
55.7226969261735
 20
696.3135699756613
 30
0.0
  0
SPLINE
  5
F4
330
EB
100
AcDbEntity
  8
Layer 1
 62
    40
370
    13
100
AcDbSpline
210
0.0
220
0.0
230
1.0
 70
    11
 71
     3
 72
    17
 73
    13
 74
     0
 42
0.0000000001
 43
0.0000000001
 12
1.0
 22
0.0
 32
0.0
 13
1.0
 23
0.0
 33
0.0
 40
0.0
 40
0.0
 40
0.0
 40
0.0
 40
1.0
 40
1.0
 40
1.0
 40
2.0
 40
2.0
 40
2.0
 40
3.0
 40
3.0
 40
3.0
 40
4.0
 40
4.0
 40
4.0
 40
4.0
 10
65.66593151570157
 20
696.3421642681888
 30
0.0
 10
65.66593151570157
 20
698.5993908301244
 30
0.0
 10
63.95165200224125
 20
700.3138425983591
 30
0.0
 10
61.72284747805887
 20
700.3138425983591
 30
0.0
 10
59.49421520865076
 20
700.3138425983591
 30
0.0
 10
57.77993569519044
 20
698.5993908301244
 30
0.0
 10
57.77993569519044
 20
696.3421642681888
 30
0.0
 10
57.77993569519044
 20
694.0849377062531
 30
0.0
 10
59.49421520865076
 20
692.3706581927928
 30
0.0
 10
61.72284747805887
 20
692.3706581927928
 30
0.0
 10
63.95165200224125
 20
692.3706581927928
 30
0.0
 10
65.66593151570157
 20
694.0849377062531
 30
0.0
 10
65.66593151570157
 20
696.3421642681888
 30
0.0
  0
SPLINE
  5
F5
330
EB
100
AcDbEntity
  8
Layer 1
 62
    40
370
    13
100
AcDbSpline
210
0.0
220
0.0
230
1.0
 70
    11
 71
     3
 72
    17
 73
    13
 74
     0
 42
0.0000000001
 43
0.0000000001
 12
1.0
 22
0.0
 32
0.0
 13
1.0
 23
0.0
 33
0.0
 40
0.0
 40
0.0
 40
0.0
 40
0.0
 40
1.0
 40
1.0
 40
1.0
 40
2.0
 40
2.0
 40
2.0
 40
3.0
 40
3.0
 40
3.0
 40
4.0
 40
4.0
 40
4.0
 40
4.0
 10
65.26595592986406
 20
705.7426240640158
 30
0.0
 10
65.26595592986406
 20
707.8570514180878
 30
0.0
 10
63.80868053960339
 20
709.399937431157
 30
0.0
 10
61.72284747805887
 20
709.399937431157
 30
0.0
 10
59.63701441651436
 20
709.399937431157
 30
0.0
 10
58.17991128102794
 20
707.8570514180878
 30
0.0
 10
58.17991128102794
 20
705.7426240640158
 30
0.0
 10
58.17991128102794
 20
703.5997746721904
 30
0.0
 10
59.63701441651436
 20
702.1139049894022
 30
0.0
 10
61.72284747805887
 20
702.1139049894022
 30
0.0
 10
63.80868053960339
 20
702.1139049894022
 30
0.0
 10
65.26595592986406
 20
703.5997746721904
 30
0.0
 10
65.26595592986406
 20
705.7426240640158
 30
0.0
  0
SPLINE
  5
F6
330
EB
100
AcDbEntity
  8
Layer 1
 62
    40
370
    13
100
AcDbSpline
210
0.0
220
0.0
230
1.0
 70
    11
 71
     3
 72
    29
 73
    25
 74
     0
 42
0.0000000001
 43
0.0000000001
 12
1.0
 22
0.0
 32
0.0
 13
1.0
 23
0.0
 33
0.0
 40
0.0
 40
0.0
 40
0.0
 40
0.0
 40
1.0
 40
1.0
 40
1.0
 40
2.0
 40
2.0
 40
2.0
 40
3.0
 40
3.0
 40
3.0
 40
4.0
 40
4.0
 40
4.0
 40
5.0
 40
5.0
 40
5.0
 40
6.0
 40
6.0
 40
6.0
 40
7.0
 40
7.0
 40
7.0
 40
8.0
 40
8.0
 40
8.0
 40
8.0
 10
70.6385823391112
 20
696.3135699756613
 30
0.0
 10
70.6385823391112
 20
698.6851737077072
 30
0.0
 10
71.98148055926158
 20
700.2852483058315
 30
0.0
 10
73.6957600727219
 20
701.2567652326719
 30
0.0
 10
72.09568547459762
 20
702.1710935744572
 30
0.0
 10
71.03855792494869
 20
703.6567910024712
 30
0.0
 10
71.03855792494869
 20
705.7712183565434
 30
0.0
 10
71.03855792494869
 20
708.9427732602643
 30
0.0
 10
73.41016165699469
 20
711.2285941147276
 30
0.0
 10
76.63873289099656
 20
711.2285941147276
 30
0.0
 10
79.86747637977271
 20
711.2285941147276
 30
0.0
 10
82.23908011181871
 20
708.9427732602643
 30
0.0
 10
82.23908011181871
 20
705.7712183565434
 30
0.0
 10
82.23908011181871
 20
703.6567910024712
 30
0.0
 10
81.2103745999231
 20
702.1710935744572
 30
0.0
 10
79.61030000179882
 20
701.2567652326719
 30
0.0
 10
81.3247517700334
 20
700.2852483058315
 30
0.0
 10
82.63905569765622
 20
698.6851737077072
 30
0.0
 10
82.63905569765622
 20
696.3135699756613
 30
0.0
 10
82.63905569765622
 20
692.8850109487406
 30
0.0
 10
80.01044784241058
 20
690.5420015092221
 30
0.0
 10
76.63873289099656
 20
690.5420015092221
 30
0.0
 10
73.26719019435681
 20
690.5420015092221
 30
0.0
 10
70.6385823391112
 20
692.8850109487406
 30
0.0
 10
70.6385823391112
 20
696.3135699756613
 30
0.0
  0
SPLINE
  5
F7
330
EB
100
AcDbEntity
  8
Layer 1
 62
    40
370
    13
100
AcDbSpline
210
0.0
220
0.0
230
1.0
 70
    11
 71
     3
 72
    17
 73
    13
 74
     0
 42
0.0000000001
 43
0.0000000001
 12
1.0
 22
0.0
 32
0.0
 13
1.0
 23
0.0
 33
0.0
 40
0.0
 40
0.0
 40
0.0
 40
0.0
 40
1.0
 40
1.0
 40
1.0
 40
2.0
 40
2.0
 40
2.0
 40
3.0
 40
3.0
 40
3.0
 40
4.0
 40
4.0
 40
4.0
 40
4.0
 10
80.58181692863927
 20
696.3421642681888
 30
0.0
 10
80.58181692863927
 20
698.5993908301244
 30
0.0
 10
78.86753741517896
 20
700.3138425983591
 30
0.0
 10
76.63873289099656
 20
700.3138425983591
 30
0.0
 10
74.41010062158846
 20
700.3138425983591
 30
0.0
 10
72.69582110812813
 20
698.5993908301244
 30
0.0
 10
72.69582110812813
 20
696.3421642681888
 30
0.0
 10
72.69582110812813
 20
694.0849377062531
 30
0.0
 10
74.41010062158846
 20
692.3706581927928
 30
0.0
 10
76.63873289099656
 20
692.3706581927928
 30
0.0
 10
78.86753741517896
 20
692.3706581927928
 30
0.0
 10
80.58181692863927
 20
694.0849377062531
 30
0.0
 10
80.58181692863927
 20
696.3421642681888
 30
0.0
  0
SPLINE
  5
F8
330
EB
100
AcDbEntity
  8
Layer 1
 62
    40
370
    13
100
AcDbSpline
210
0.0
220
0.0
230
1.0
 70
    11
 71
     3
 72
    17
 73
    13
 74
     0
 42
0.0000000001
 43
0.0000000001
 12
1.0
 22
0.0
 32
0.0
 13
1.0
 23
0.0
 33
0.0
 40
0.0
 40
0.0
 40
0.0
 40
0.0
 40
1.0
 40
1.0
 40
1.0
 40
2.0
 40
2.0
 40
2.0
 40
3.0
 40
3.0
 40
3.0
 40
4.0
 40
4.0
 40
4.0
 40
4.0
 10
80.18184134280176
 20
705.7426240640158
 30
0.0
 10
80.18184134280176
 20
707.8570514180878
 30
0.0
 10
78.72456595254108
 20
709.399937431157
 30
0.0
 10
76.63873289099656
 20
709.399937431157
 30
0.0
 10
74.55289982945206
 20
709.399937431157
 30
0.0
 10
73.09579669396564
 20
707.8570514180878
 30
0.0
 10
73.09579669396564
 20
705.7426240640158
 30
0.0
 10
73.09579669396564
 20
703.5997746721904
 30
0.0
 10
74.55289982945206
 20
702.1139049894022
 30
0.0
 10
76.63873289099656
 20
702.1139049894022
 30
0.0
 10
78.72456595254108
 20
702.1139049894022
 30
0.0
 10
80.18184134280176
 20
703.5997746721904
 30
0.0
 10
80.18184134280176
 20
705.7426240640158
 30
0.0
  0
ENDBLK
  5
EE
330
EB
100
AcDbEntity
  8
0
100
AcDbBlockEnd
  0
BLOCK
  5
103
330
101
100
AcDbEntity
  8
0
100
AcDbBlockBegin
  2
block 6
 70
     0
 10
0.0
 20
0.0
 30
0.0
  3
block 6
  1

  0
POLYLINE
  5
105
330
101
100
AcDbEntity
  8
Layer 1
 62
    40
370
    13
100
AcDb2dPolyline
 66
     1
 10
0.0
 20
0.0
 30
0.0
  0
VERTEX
  5
106
330
105
100
AcDbEntity
  8
Layer 1
 62
    40
370
    13
100
AcDbVertex
100
AcDb2dVertex
 10
56.35468557735886
 20
345.1769131343844
 30
0.0
  0
VERTEX
  5
107
330
105
100
AcDbEntity
  8
Layer 1
 62
    40
370
    13
100
AcDbVertex
100
AcDb2dVertex
 10
57.6045662194075
 20
345.2894385656713
 30
0.0
  0
VERTEX
  5
108
330
105
100
AcDbEntity
  8
Layer 1
 62
    40
370
    13
100
AcDbVertex
100
AcDb2dVertex
 10
58.81424690351264
 20
345.6231821908049
 30
0.0
  0
VERTEX
  5
109
330
105
100
AcDbEntity
  8
Layer 1
 62
    40
370
    13
100
AcDbVertex
100
AcDb2dVertex
 10
59.94488417807807
 20
346.1675072774744
 30
0.0
  0
VERTEX
  5
10A
330
105
100
AcDbEntity
  8
Layer 1
 62
    40
370
    13
100
AcDbVertex
100
AcDb2dVertex
 10
60.96019688127476
 20
346.9051668164067
 30
0.0
  0
VERTEX
  5
10B
330
105
100
AcDbEntity
  8
Layer 1
 62
    40
370
    13
100
AcDbVertex
100
AcDb2dVertex
 10
61.82767192446067
 20
347.8125188398344
 30
0.0
  0
VERTEX
  5
10C
330
105
100
AcDbEntity
  8
Layer 1
 62
    40
370
    13
100
AcDbVertex
100
AcDb2dVertex
 10
62.51875807880179
 20
348.8595479533422
 30
0.0
  0
VERTEX
  5
10D
330
105
100
AcDbEntity
  8
Layer 1
 62
    40
370
    13
100
AcDbVertex
100
AcDb2dVertex
 10
63.01194502936208
 20
350.0134826861266
 30
0.0
  0
VERTEX
  5
10E
330
105
100
AcDbEntity
  8
Layer 1
 62
    40
370
    13
100
AcDbVertex
100
AcDb2dVertex
 10
63.29134227321585
 20
351.2372882617213
 30
0.0
  0
VERTEX
  5
10F
330
105
100
AcDbEntity
  8
Layer 1
 62
    40
370
    13
100
AcDbVertex
100
AcDb2dVertex
 10
63.34779877548038
 20
352.4907001266423
 30
0.0
  0
VERTEX
  5
110
330
105
100
AcDbEntity
  8
Layer 1
 62
    40
370
    13
100
AcDbVertex
100
AcDb2dVertex
 10
63.1791613514774
 20
353.7345949152853
 30
0.0
  0
VERTEX
  5
111
330
105
100
AcDbEntity
  8
Layer 1
 62
    40
370
    13
100
AcDbVertex
100
AcDb2dVertex
 10
62.79145891830609
 20
354.9280405869162
 30
0.0
  0
VERTEX
  5
112
330
105
100
AcDbEntity
  8
Layer 1
 62
    40
370
    13
100
AcDbVertex
100
AcDb2dVertex
 10
62.1966847146245
 20
356.0329473045762
 30
0.0
  0
VERTEX
  5
113
330
105
100
AcDbEntity
  8
Layer 1
 62
    40
370
    13
100
AcDbVertex
100
AcDb2dVertex
 10
61.41421740253713
 20
357.0143688809367
 30
0.0
  0
VERTEX
  5
114
330
105
100
AcDbEntity
  8
Layer 1
 62
    40
370
    13
100
AcDbVertex
100
AcDb2dVertex
 10
60.46912005169918
 20
357.8398568228961
 30
0.0
  0
VERTEX
  5
115
330
105
100
AcDbEntity
  8
Layer 1
 62
    40
370
    13
100
AcDbVertex
100
AcDb2dVertex
 10
59.39173103422764
 20
358.483680573549
 30
0.0
  0
VERTEX
  5
116
330
105
100
AcDbEntity
  8
Layer 1
 62
    40
370
    13
100
AcDbVertex
100
AcDb2dVertex
 10
58.21699653745101
 20
358.924652795661
 30
0.0
  0
VERTEX
  5
117
330
105
100
AcDbEntity
  8
Layer 1
 62
    40
370
    13
100
AcDbVertex
100
AcDb2dVertex
 10
56.98227431553747
 20
359.1486701295893
 30
0.0
  0
VERTEX
  5
118
330
105
100
AcDbEntity
  8
Layer 1
 62
    40
370
    13
100
AcDbVertex
100
AcDb2dVertex
 10
55.72707530733347
 20
359.1486701295893
 30
0.0
  0
VERTEX
  5
119
330
105
100
AcDbEntity
  8
Layer 1
 62
    40
370
    13
100
AcDbVertex
100
AcDb2dVertex
 10
54.49235308541994
 20
358.924652795661
 30
0.0
  0
VERTEX
  5
11A
330
105
100
AcDbEntity
  8
Layer 1
 62
    40
370
    13
100
AcDbVertex
100
AcDb2dVertex
 10
53.31761858864331
 20
358.483680573549
 30
0.0
  0
VERTEX
  5
11B
330
105
100
AcDbEntity
  8
Layer 1
 62
    40
370
    13
100
AcDbVertex
100
AcDb2dVertex
 10
52.24022957117177
 20
357.8398568228961
 30
0.0
  0
VERTEX
  5
11C
330
105
100
AcDbEntity
  8
Layer 1
 62
    40
370
    13
100
AcDbVertex
100
AcDb2dVertex
 10
51.29513222033382
 20
357.0143688809367
 30
0.0
  0
VERTEX
  5
11D
330
105
100
AcDbEntity
  8
Layer 1
 62
    40
370
    13
100
AcDbVertex
100
AcDb2dVertex
 10
50.51266490824645
 20
356.0329473045762
 30
0.0
  0
VERTEX
  5
11E
330
105
100
AcDbEntity
  8
Layer 1
 62
    40
370
    13
100
AcDbVertex
100
AcDb2dVertex
 10
49.91789070456485
 20
354.9280405869162
 30
0.0
  0
VERTEX
  5
11F
330
105
100
AcDbEntity
  8
Layer 1
 62
    40
370
    13
100
AcDbVertex
100
AcDb2dVertex
 10
49.53018827139355
 20
353.7345949152853
 30
0.0
  0
VERTEX
  5
120
330
105
100
AcDbEntity
  8
Layer 1
 62
    40
370
    13
100
AcDbVertex
100
AcDb2dVertex
 10
49.36155084739057
 20
352.4907001266423
 30
0.0
  0
VERTEX
  5
121
330
105
100
AcDbEntity
  8
Layer 1
 62
    40
370
    13
100
AcDbVertex
100
AcDb2dVertex
 10
49.4180073496551
 20
351.2372882617213
 30
0.0
  0
VERTEX
  5
122
330
105
100
AcDbEntity
  8
Layer 1
 62
    40
370
    13
100
AcDbVertex
100
AcDb2dVertex
 10
49.69740459350886
 20
350.0134826861266
 30
0.0
  0
VERTEX
  5
123
330
105
100
AcDbEntity
  8
Layer 1
 62
    40
370
    13
100
AcDbVertex
100
AcDb2dVertex
 10
50.19059154406916
 20
348.8595479533422
 30
0.0
  0
VERTEX
  5
124
330
105
100
AcDbEntity
  8
Layer 1
 62
    40
370
    13
100
AcDbVertex
100
AcDb2dVertex
 10
50.88204373980558
 20
347.8125188398344
 30
0.0
  0
VERTEX
  5
125
330
105
100
AcDbEntity
  8
Layer 1
 62
    40
370
    13
100
AcDbVertex
100
AcDb2dVertex
 10
51.74915274159618
 20
346.9051668164067
 30
0.0
  0
VERTEX
  5
126
330
105
100
AcDbEntity
  8
Layer 1
 62
    40
370
    13
100
AcDbVertex
100
AcDb2dVertex
 10
52.76446544479288
 20
346.1675072774744
 30
0.0
  0
VERTEX
  5
127
330
105
100
AcDbEntity
  8
Layer 1
 62
    40
370
    13
100
AcDbVertex
100
AcDb2dVertex
 10
53.89510271935831
 20
345.6231821908049
 30
0.0
  0
VERTEX
  5
128
330
105
100
AcDbEntity
  8
Layer 1
 62
    40
370
    13
100
AcDbVertex
100
AcDb2dVertex
 10
55.10478340346344
 20
345.2894385656713
 30
0.0
  0
VERTEX
  5
129
330
105
100
AcDbEntity
  8
Layer 1
 62
    40
370
    13
100
AcDbVertex
100
AcDb2dVertex
 10
56.35468557735886
 20
345.1769131343844
 30
0.0
  0
SEQEND
  5
12A
330
105
100
AcDbEntity
  8
Layer 1
 62
    40
370
    13
  0
POLYLINE
  5
12B
330
101
100
AcDbEntity
  8
Layer 1
 62
    40
370
    13
100
AcDb2dPolyline
 66
     1
 10
0.0
 20
0.0
 30
0.0
  0
VERTEX
  5
12C
330
12B
100
AcDbEntity
  8
Layer 1
 62
    40
370
    13
100
AcDbVertex
100
AcDb2dVertex
 10
93.8545929979969
 20
279.17676429292
 30
0.0
  0
VERTEX
  5
12D
330
12B
100
AcDbEntity
  8
Layer 1
 62
    40
370
    13
100
AcDbVertex
100
AcDb2dVertex
 10
18.85475662487404
 20
279.17676429292
 30
0.0
  0
VERTEX
  5
12E
330
12B
100
AcDbEntity
  8
Layer 1
 62
    40
370
    13
100
AcDbVertex
100
AcDb2dVertex
 10
18.85475662487404
 20
594.1766153562053
 30
0.0
  0
VERTEX
  5
12F
330
12B
100
AcDbEntity
  8
Layer 1
 62
    40
370
    13
100
AcDbVertex
100
AcDb2dVertex
 10
93.8545929979969
 20
594.1766153562053
 30
0.0
  0
VERTEX
  5
130
330
12B
100
AcDbEntity
  8
Layer 1
 62
    40
370
    13
100
AcDbVertex
100
AcDb2dVertex
 10
93.8545929979969
 20
279.17676429292
 30
0.0
  0
SEQEND
  5
131
330
12B
100
AcDbEntity
  8
Layer 1
 62
    40
370
    13
  0
POLYLINE
  5
132
330
101
100
AcDbEntity
  8
Layer 1
 62
    40
370
    13
100
AcDb2dPolyline
 66
     1
 10
0.0
 20
0.0
 30
0.0
  0
VERTEX
  5
133
330
132
100
AcDbEntity
  8
Layer 1
 62
    40
370
    13
100
AcDbVertex
100
AcDb2dVertex
 10
56.35468557735886
 20
295.1766490002915
 30
0.0
  0
VERTEX
  5
134
330
132
100
AcDbEntity
  8
Layer 1
 62
    40
370
    13
100
AcDbVertex
100
AcDb2dVertex
 10
57.6045662194075
 20
295.2891959634253
 30
0.0
  0
VERTEX
  5
135
330
132
100
AcDbEntity
  8
Layer 1
 62
    40
370
    13
100
AcDbVertex
100
AcDb2dVertex
 10
58.81424690351264
 20
295.6232625662606
 30
0.0
  0
VERTEX
  5
136
330
132
100
AcDbEntity
  8
Layer 1
 62
    40
370
    13
100
AcDbVertex
100
AcDb2dVertex
 10
59.94488417807807
 20
296.1676091847769
 30
0.0
  0
VERTEX
  5
137
330
132
100
AcDbEntity
  8
Layer 1
 62
    40
370
    13
100
AcDbVertex
100
AcDb2dVertex
 10
60.96019688127476
 20
296.9052687237092
 30
0.0
  0
VERTEX
  5
138
330
132
100
AcDbEntity
  8
Layer 1
 62
    40
370
    13
100
AcDbVertex
100
AcDb2dVertex
 10
61.82767192446067
 20
297.8122547057416
 30
0.0
  0
VERTEX
  5
139
330
132
100
AcDbEntity
  8
Layer 1
 62
    40
370
    13
100
AcDbVertex
100
AcDb2dVertex
 10
62.51875807880179
 20
298.8596498606447
 30
0.0
  0
VERTEX
  5
13A
330
132
100
AcDbEntity
  8
Layer 1
 62
    40
370
    13
100
AcDbVertex
100
AcDb2dVertex
 10
63.01194502936208
 20
300.0135845934291
 30
0.0
  0
VERTEX
  5
13B
330
132
100
AcDbEntity
  8
Layer 1
 62
    40
370
    13
100
AcDbVertex
100
AcDb2dVertex
 10
63.29134227321585
 20
301.2370241276284
 30
0.0
  0
VERTEX
  5
13C
330
132
100
AcDbEntity
  8
Layer 1
 62
    40
370
    13
100
AcDbVertex
100
AcDb2dVertex
 10
63.34779877548038
 20
302.4908020339448
 30
0.0
  0
VERTEX
  5
13D
330
132
100
AcDbEntity
  8
Layer 1
 62
    40
370
    13
100
AcDbVertex
100
AcDb2dVertex
 10
63.1791613514774
 20
303.7343307811925
 30
0.0
  0
VERTEX
  5
13E
330
132
100
AcDbEntity
  8
Layer 1
 62
    40
370
    13
100
AcDbVertex
100
AcDb2dVertex
 10
62.79145891830609
 20
304.9281424942187
 30
0.0
  0
VERTEX
  5
13F
330
132
100
AcDbEntity
  8
Layer 1
 62
    40
370
    13
100
AcDbVertex
100
AcDb2dVertex
 10
62.1966847146245
 20
306.0330492118787
 30
0.0
  0
VERTEX
  5
140
330
132
100
AcDbEntity
  8
Layer 1
 62
    40
370
    13
100
AcDbVertex
100
AcDb2dVertex
 10
61.41421740253713
 20
307.0141047468439
 30
0.0
  0
VERTEX
  5
141
330
132
100
AcDbEntity
  8
Layer 1
 62
    40
370
    13
100
AcDbVertex
100
AcDb2dVertex
 10
60.46912005169918
 20
307.8399587301986
 30
0.0
  0
VERTEX
  5
142
330
132
100
AcDbEntity
  8
Layer 1
 62
    40
370
    13
100
AcDbVertex
100
AcDb2dVertex
 10
59.39173103422764
 20
308.483437971303
 30
0.0
  0
VERTEX
  5
143
330
132
100
AcDbEntity
  8
Layer 1
 62
    40
370
    13
100
AcDbVertex
100
AcDb2dVertex
 10
58.21699653745101
 20
308.9244101934149
 30
0.0
  0
VERTEX
  5
144
330
132
100
AcDbEntity
  8
Layer 1
 62
    40
370
    13
100
AcDbVertex
100
AcDb2dVertex
 10
56.98227431553747
 20
309.1487720368918
 30
0.0
  0
VERTEX
  5
145
330
132
100
AcDbEntity
  8
Layer 1
 62
    40
370
    13
100
AcDbVertex
100
AcDb2dVertex
 10
55.72707530733347
 20
309.1487720368918
 30
0.0
  0
VERTEX
  5
146
330
132
100
AcDbEntity
  8
Layer 1
 62
    40
370
    13
100
AcDbVertex
100
AcDb2dVertex
 10
54.49235308541994
 20
308.9244101934149
 30
0.0
  0
VERTEX
  5
147
330
132
100
AcDbEntity
  8
Layer 1
 62
    40
370
    13
100
AcDbVertex
100
AcDb2dVertex
 10
53.31761858864331
 20
308.483437971303
 30
0.0
  0
VERTEX
  5
148
330
132
100
AcDbEntity
  8
Layer 1
 62
    40
370
    13
100
AcDbVertex
100
AcDb2dVertex
 10
52.24022957117177
 20
307.8399587301986
 30
0.0
  0
VERTEX
  5
149
330
132
100
AcDbEntity
  8
Layer 1
 62
    40
370
    13
100
AcDbVertex
100
AcDb2dVertex
 10
51.29513222033382
 20
307.0141047468439
 30
0.0
  0
VERTEX
  5
14A
330
132
100
AcDbEntity
  8
Layer 1
 62
    40
370
    13
100
AcDbVertex
100
AcDb2dVertex
 10
50.51266490824645
 20
306.0330492118787
 30
0.0
  0
VERTEX
  5
14B
330
132
100
AcDbEntity
  8
Layer 1
 62
    40
370
    13
100
AcDbVertex
100
AcDb2dVertex
 10
49.91789070456485
 20
304.9281424942187
 30
0.0
  0
VERTEX
  5
14C
330
132
100
AcDbEntity
  8
Layer 1
 62
    40
370
    13
100
AcDbVertex
100
AcDb2dVertex
 10
49.53018827139355
 20
303.7343307811925
 30
0.0
  0
VERTEX
  5
14D
330
132
100
AcDbEntity
  8
Layer 1
 62
    40
370
    13
100
AcDbVertex
100
AcDb2dVertex
 10
49.36155084739057
 20
302.4908020339448
 30
0.0
  0
VERTEX
  5
14E
330
132
100
AcDbEntity
  8
Layer 1
 62
    40
370
    13
100
AcDbVertex
100
AcDb2dVertex
 10
49.4180073496551
 20
301.2370241276284
 30
0.0
  0
VERTEX
  5
14F
330
132
100
AcDbEntity
  8
Layer 1
 62
    40
370
    13
100
AcDbVertex
100
AcDb2dVertex
 10
49.69740459350886
 20
300.0135845934291
 30
0.0
  0
VERTEX
  5
150
330
132
100
AcDbEntity
  8
Layer 1
 62
    40
370
    13
100
AcDbVertex
100
AcDb2dVertex
 10
50.19059154406916
 20
298.8596498606447
 30
0.0
  0
VERTEX
  5
151
330
132
100
AcDbEntity
  8
Layer 1
 62
    40
370
    13
100
AcDbVertex
100
AcDb2dVertex
 10
50.88204373980558
 20
297.8122547057416
 30
0.0
  0
VERTEX
  5
152
330
132
100
AcDbEntity
  8
Layer 1
 62
    40
370
    13
100
AcDbVertex
100
AcDb2dVertex
 10
51.74915274159618
 20
296.9052687237092
 30
0.0
  0
VERTEX
  5
153
330
132
100
AcDbEntity
  8
Layer 1
 62
    40
370
    13
100
AcDbVertex
100
AcDb2dVertex
 10
52.76446544479288
 20
296.1676091847769
 30
0.0
  0
VERTEX
  5
154
330
132
100
AcDbEntity
  8
Layer 1
 62
    40
370
    13
100
AcDbVertex
100
AcDb2dVertex
 10
53.89510271935831
 20
295.6232625662606
 30
0.0
  0
VERTEX
  5
155
330
132
100
AcDbEntity
  8
Layer 1
 62
    40
370
    13
100
AcDbVertex
100
AcDb2dVertex
 10
55.10478340346344
 20
295.2891959634253
 30
0.0
  0
VERTEX
  5
156
330
132
100
AcDbEntity
  8
Layer 1
 62
    40
370
    13
100
AcDbVertex
100
AcDb2dVertex
 10
56.35468557735886
 20
295.1766490002915
 30
0.0
  0
SEQEND
  5
157
330
132
100
AcDbEntity
  8
Layer 1
 62
    40
370
    13
  0
POLYLINE
  5
158
330
101
100
AcDbEntity
  8
Layer 1
 62
    40
370
    13
100
AcDb2dPolyline
 66
     1
 10
0.0
 20
0.0
 30
0.0
  0
VERTEX
  5
159
330
158
100
AcDbEntity
  8
Layer 1
 62
    40
370
    13
100
AcDbVertex
100
AcDb2dVertex
 10
56.35468557735886
 20
514.176847309799
 30
0.0
  0
VERTEX
  5
15A
330
158
100
AcDbEntity
  8
Layer 1
 62
    40
370
    13
100
AcDbVertex
100
AcDb2dVertex
 10
57.6045662194075
 20
514.289372741086
 30
0.0
  0
VERTEX
  5
15B
330
158
100
AcDbEntity
  8
Layer 1
 62
    40
370
    13
100
AcDbVertex
100
AcDb2dVertex
 10
58.81424690351264
 20
514.6231163662195
 30
0.0
  0
VERTEX
  5
15C
330
158
100
AcDbEntity
  8
Layer 1
 62
    40
370
    13
100
AcDbVertex
100
AcDb2dVertex
 10
59.94488417807807
 20
515.1677859624375
 30
0.0
  0
VERTEX
  5
15D
330
158
100
AcDbEntity
  8
Layer 1
 62
    40
370
    13
100
AcDbVertex
100
AcDb2dVertex
 10
60.96019688127476
 20
515.9051225236682
 30
0.0
  0
VERTEX
  5
15E
330
158
100
AcDbEntity
  8
Layer 1
 62
    40
370
    13
100
AcDbVertex
100
AcDb2dVertex
 10
61.82767192446067
 20
516.8124314834023
 30
0.0
  0
VERTEX
  5
15F
330
158
100
AcDbEntity
  8
Layer 1
 62
    40
370
    13
100
AcDbVertex
100
AcDb2dVertex
 10
62.51875807880179
 20
517.8598266383053
 30
0.0
  0
VERTEX
  5
160
330
158
100
AcDbEntity
  8
Layer 1
 62
    40
370
    13
100
AcDbVertex
100
AcDb2dVertex
 10
63.01194502936208
 20
519.0138044347833
 30
0.0
  0
VERTEX
  5
161
330
158
100
AcDbEntity
  8
Layer 1
 62
    40
370
    13
100
AcDbVertex
100
AcDb2dVertex
 10
63.29134227321585
 20
520.2372009052891
 30
0.0
  0
VERTEX
  5
162
330
158
100
AcDbEntity
  8
Layer 1
 62
    40
370
    13
100
AcDbVertex
100
AcDb2dVertex
 10
63.34779877548038
 20
521.4906558339037
 30
0.0
  0
VERTEX
  5
163
330
158
100
AcDbEntity
  8
Layer 1
 62
    40
370
    13
100
AcDbVertex
100
AcDb2dVertex
 10
63.1791613514774
 20
522.7345506225467
 30
0.0
  0
VERTEX
  5
164
330
158
100
AcDbEntity
  8
Layer 1
 62
    40
370
    13
100
AcDbVertex
100
AcDb2dVertex
 10
62.79145891830609
 20
523.9279747623308
 30
0.0
  0
VERTEX
  5
165
330
158
100
AcDbEntity
  8
Layer 1
 62
    40
370
    13
100
AcDbVertex
100
AcDb2dVertex
 10
62.1966847146245
 20
525.0332475213861
 30
0.0
  0
VERTEX
  5
166
330
158
100
AcDbEntity
  8
Layer 1
 62
    40
370
    13
100
AcDbVertex
100
AcDb2dVertex
 10
61.41421740253713
 20
526.0143245881982
 30
0.0
  0
VERTEX
  5
167
330
158
100
AcDbEntity
  8
Layer 1
 62
    40
370
    13
100
AcDbVertex
100
AcDb2dVertex
 10
60.46912005169918
 20
526.8398125301576
 30
0.0
  0
VERTEX
  5
168
330
158
100
AcDbEntity
  8
Layer 1
 62
    40
370
    13
100
AcDbVertex
100
AcDb2dVertex
 10
59.39173103422764
 20
527.4836147489636
 30
0.0
  0
VERTEX
  5
169
330
158
100
AcDbEntity
  8
Layer 1
 62
    40
370
    13
100
AcDbVertex
100
AcDb2dVertex
 10
58.21699653745101
 20
527.9245869710757
 30
0.0
  0
VERTEX
  5
16A
330
158
100
AcDbEntity
  8
Layer 1
 62
    40
370
    13
100
AcDbVertex
100
AcDb2dVertex
 10
56.98227431553747
 20
528.148604305004
 30
0.0
  0
VERTEX
  5
16B
330
158
100
AcDbEntity
  8
Layer 1
 62
    40
370
    13
100
AcDbVertex
100
AcDb2dVertex
 10
55.72707530733347
 20
528.148604305004
 30
0.0
  0
VERTEX
  5
16C
330
158
100
AcDbEntity
  8
Layer 1
 62
    40
370
    13
100
AcDbVertex
100
AcDb2dVertex
 10
54.49235308541994
 20
527.9245869710757
 30
0.0
  0
VERTEX
  5
16D
330
158
100
AcDbEntity
  8
Layer 1
 62
    40
370
    13
100
AcDbVertex
100
AcDb2dVertex
 10
53.31761858864331
 20
527.4836147489636
 30
0.0
  0
VERTEX
  5
16E
330
158
100
AcDbEntity
  8
Layer 1
 62
    40
370
    13
100
AcDbVertex
100
AcDb2dVertex
 10
52.24022957117177
 20
526.8398125301576
 30
0.0
  0
VERTEX
  5
16F
330
158
100
AcDbEntity
  8
Layer 1
 62
    40
370
    13
100
AcDbVertex
100
AcDb2dVertex
 10
51.29513222033382
 20
526.0143245881982
 30
0.0
  0
VERTEX
  5
170
330
158
100
AcDbEntity
  8
Layer 1
 62
    40
370
    13
100
AcDbVertex
100
AcDb2dVertex
 10
50.51266490824645
 20
525.0332475213861
 30
0.0
  0
VERTEX
  5
171
330
158
100
AcDbEntity
  8
Layer 1
 62
    40
370
    13
100
AcDbVertex
100
AcDb2dVertex
 10
49.91789070456485
 20
523.9279747623308
 30
0.0
  0
VERTEX
  5
172
330
158
100
AcDbEntity
  8
Layer 1
 62
    40
370
    13
100
AcDbVertex
100
AcDb2dVertex
 10
49.53018827139355
 20
522.7345506225467
 30
0.0
  0
VERTEX
  5
173
330
158
100
AcDbEntity
  8
Layer 1
 62
    40
370
    13
100
AcDbVertex
100
AcDb2dVertex
 10
49.36155084739057
 20
521.4906558339037
 30
0.0
  0
VERTEX
  5
174
330
158
100
AcDbEntity
  8
Layer 1
 62
    40
370
    13
100
AcDbVertex
100
AcDb2dVertex
 10
49.4180073496551
 20
520.2372009052891
 30
0.0
  0
VERTEX
  5
175
330
158
100
AcDbEntity
  8
Layer 1
 62
    40
370
    13
100
AcDbVertex
100
AcDb2dVertex
 10
49.69740459350886
 20
519.0138044347833
 30
0.0
  0
VERTEX
  5
176
330
158
100
AcDbEntity
  8
Layer 1
 62
    40
370
    13
100
AcDbVertex
100
AcDb2dVertex
 10
50.19059154406916
 20
517.8598266383053
 30
0.0
  0
VERTEX
  5
177
330
158
100
AcDbEntity
  8
Layer 1
 62
    40
370
    13
100
AcDbVertex
100
AcDb2dVertex
 10
50.88204373980558
 20
516.8124314834023
 30
0.0
  0
VERTEX
  5
178
330
158
100
AcDbEntity
  8
Layer 1
 62
    40
370
    13
100
AcDbVertex
100
AcDb2dVertex
 10
51.74915274159618
 20
515.9051225236682
 30
0.0
  0
VERTEX
  5
179
330
158
100
AcDbEntity
  8
Layer 1
 62
    40
370
    13
100
AcDbVertex
100
AcDb2dVertex
 10
52.76446544479288
 20
515.1677859624375
 30
0.0
  0
VERTEX
  5
17A
330
158
100
AcDbEntity
  8
Layer 1
 62
    40
370
    13
100
AcDbVertex
100
AcDb2dVertex
 10
53.89510271935831
 20
514.6231163662195
 30
0.0
  0
VERTEX
  5
17B
330
158
100
AcDbEntity
  8
Layer 1
 62
    40
370
    13
100
AcDbVertex
100
AcDb2dVertex
 10
55.10478340346344
 20
514.289372741086
 30
0.0
  0
VERTEX
  5
17C
330
158
100
AcDbEntity
  8
Layer 1
 62
    40
370
    13
100
AcDbVertex
100
AcDb2dVertex
 10
56.35468557735886
 20
514.176847309799
 30
0.0
  0
SEQEND
  5
17D
330
158
100
AcDbEntity
  8
Layer 1
 62
    40
370
    13
  0
POLYLINE
  5
17E
330
101
100
AcDbEntity
  8
Layer 1
 62
    40
370
    13
100
AcDb2dPolyline
 66
     1
 10
0.0
 20
0.0
 30
0.0
  0
VERTEX
  5
17F
330
17E
100
AcDbEntity
  8
Layer 1
 62
    40
370
    13
100
AcDbVertex
100
AcDb2dVertex
 10
56.35468557735886
 20
564.1767669343433
 30
0.0
  0
VERTEX
  5
180
330
17E
100
AcDbEntity
  8
Layer 1
 62
    40
370
    13
100
AcDbVertex
100
AcDb2dVertex
 10
57.6045662194075
 20
564.2892923656302
 30
0.0
  0
VERTEX
  5
181
330
17E
100
AcDbEntity
  8
Layer 1
 62
    40
370
    13
100
AcDbVertex
100
AcDb2dVertex
 10
58.81424690351264
 20
564.6229929270703
 30
0.0
  0
VERTEX
  5
182
330
17E
100
AcDbEntity
  8
Layer 1
 62
    40
370
    13
100
AcDbVertex
100
AcDb2dVertex
 10
59.94488417807807
 20
565.1677055869818
 30
0.0
  0
VERTEX
  5
183
330
17E
100
AcDbEntity
  8
Layer 1
 62
    40
370
    13
100
AcDbVertex
100
AcDb2dVertex
 10
60.96019688127476
 20
565.9053435940674
 30
0.0
  0
VERTEX
  5
184
330
17E
100
AcDbEntity
  8
Layer 1
 62
    40
370
    13
100
AcDbVertex
100
AcDb2dVertex
 10
61.82767192446067
 20
566.8123511079466
 30
0.0
  0
VERTEX
  5
185
330
17E
100
AcDbEntity
  8
Layer 1
 62
    40
370
    13
100
AcDbVertex
100
AcDb2dVertex
 10
62.51875807880179
 20
567.8597462628496
 30
0.0
  0
VERTEX
  5
186
330
17E
100
AcDbEntity
  8
Layer 1
 62
    40
370
    13
100
AcDbVertex
100
AcDb2dVertex
 10
63.01194502936208
 20
569.0136809956341
 30
0.0
  0
VERTEX
  5
187
330
17E
100
AcDbEntity
  8
Layer 1
 62
    40
370
    13
100
AcDbVertex
100
AcDb2dVertex
 10
63.29134227321585
 20
570.2371205298334
 30
0.0
  0
VERTEX
  5
188
330
17E
100
AcDbEntity
  8
Layer 1
 62
    40
370
    13
100
AcDbVertex
100
AcDb2dVertex
 10
63.34779877548038
 20
571.4908769043029
 30
0.0
  0
VERTEX
  5
189
330
17E
100
AcDbEntity
  8
Layer 1
 62
    40
370
    13
100
AcDbVertex
100
AcDb2dVertex
 10
63.1791613514774
 20
572.7344271833974
 30
0.0
  0
VERTEX
  5
18A
330
17E
100
AcDbEntity
  8
Layer 1
 62
    40
370
    13
100
AcDbVertex
100
AcDb2dVertex
 10
62.79145891830609
 20
573.9278943868751
 30
0.0
  0
VERTEX
  5
18B
330
17E
100
AcDbEntity
  8
Layer 1
 62
    40
370
    13
100
AcDbVertex
100
AcDb2dVertex
 10
62.1966847146245
 20
575.0331240822369
 30
0.0
  0
VERTEX
  5
18C
330
17E
100
AcDbEntity
  8
Layer 1
 62
    40
370
    13
100
AcDbVertex
100
AcDb2dVertex
 10
61.41421740253713
 20
576.0142011490489
 30
0.0
  0
VERTEX
  5
18D
330
17E
100
AcDbEntity
  8
Layer 1
 62
    40
370
    13
100
AcDbVertex
100
AcDb2dVertex
 10
60.46912005169918
 20
576.8400766642504
 30
0.0
  0
VERTEX
  5
18E
330
17E
100
AcDbEntity
  8
Layer 1
 62
    40
370
    13
100
AcDbVertex
100
AcDb2dVertex
 10
59.39173103422764
 20
577.483534373508
 30
0.0
  0
VERTEX
  5
18F
330
17E
100
AcDbEntity
  8
Layer 1
 62
    40
370
    13
100
AcDbVertex
100
AcDb2dVertex
 10
58.21699653745101
 20
577.92450659562
 30
0.0
  0
VERTEX
  5
190
330
17E
100
AcDbEntity
  8
Layer 1
 62
    40
370
    13
100
AcDbVertex
100
AcDb2dVertex
 10
56.98227431553747
 20
578.1485239295483
 30
0.0
  0
VERTEX
  5
191
330
17E
100
AcDbEntity
  8
Layer 1
 62
    40
370
    13
100
AcDbVertex
100
AcDb2dVertex
 10
55.72707530733347
 20
578.1485239295483
 30
0.0
  0
VERTEX
  5
192
330
17E
100
AcDbEntity
  8
Layer 1
 62
    40
370
    13
100
AcDbVertex
100
AcDb2dVertex
 10
54.49235308541994
 20
577.92450659562
 30
0.0
  0
VERTEX
  5
193
330
17E
100
AcDbEntity
  8
Layer 1
 62
    40
370
    13
100
AcDbVertex
100
AcDb2dVertex
 10
53.31761858864331
 20
577.483534373508
 30
0.0
  0
VERTEX
  5
194
330
17E
100
AcDbEntity
  8
Layer 1
 62
    40
370
    13
100
AcDbVertex
100
AcDb2dVertex
 10
52.24022957117177
 20
576.8400766642504
 30
0.0
  0
VERTEX
  5
195
330
17E
100
AcDbEntity
  8
Layer 1
 62
    40
370
    13
100
AcDbVertex
100
AcDb2dVertex
 10
51.29513222033382
 20
576.0142011490489
 30
0.0
  0
VERTEX
  5
196
330
17E
100
AcDbEntity
  8
Layer 1
 62
    40
370
    13
100
AcDbVertex
100
AcDb2dVertex
 10
50.51266490824645
 20
575.0331240822369
 30
0.0
  0
VERTEX
  5
197
330
17E
100
AcDbEntity
  8
Layer 1
 62
    40
370
    13
100
AcDbVertex
100
AcDb2dVertex
 10
49.91789070456485
 20
573.9278943868751
 30
0.0
  0
VERTEX
  5
198
330
17E
100
AcDbEntity
  8
Layer 1
 62
    40
370
    13
100
AcDbVertex
100
AcDb2dVertex
 10
49.53018827139355
 20
572.7344271833974
 30
0.0
  0
VERTEX
  5
199
330
17E
100
AcDbEntity
  8
Layer 1
 62
    40
370
    13
100
AcDbVertex
100
AcDb2dVertex
 10
49.36155084739057
 20
571.4908769043029
 30
0.0
  0
VERTEX
  5
19A
330
17E
100
AcDbEntity
  8
Layer 1
 62
    40
370
    13
100
AcDbVertex
100
AcDb2dVertex
 10
49.4180073496551
 20
570.2371205298334
 30
0.0
  0
VERTEX
  5
19B
330
17E
100
AcDbEntity
  8
Layer 1
 62
    40
370
    13
100
AcDbVertex
100
AcDb2dVertex
 10
49.69740459350886
 20
569.0136809956341
 30
0.0
  0
VERTEX
  5
19C
330
17E
100
AcDbEntity
  8
Layer 1
 62
    40
370
    13
100
AcDbVertex
100
AcDb2dVertex
 10
50.19059154406916
 20
567.8597462628496
 30
0.0
  0
VERTEX
  5
19D
330
17E
100
AcDbEntity
  8
Layer 1
 62
    40
370
    13
100
AcDbVertex
100
AcDb2dVertex
 10
50.88204373980558
 20
566.8123511079466
 30
0.0
  0
VERTEX
  5
19E
330
17E
100
AcDbEntity
  8
Layer 1
 62
    40
370
    13
100
AcDbVertex
100
AcDb2dVertex
 10
51.74915274159618
 20
565.9053435940674
 30
0.0
  0
VERTEX
  5
19F
330
17E
100
AcDbEntity
  8
Layer 1
 62
    40
370
    13
100
AcDbVertex
100
AcDb2dVertex
 10
52.76446544479288
 20
565.1677055869818
 30
0.0
  0
VERTEX
  5
1A0
330
17E
100
AcDbEntity
  8
Layer 1
 62
    40
370
    13
100
AcDbVertex
100
AcDb2dVertex
 10
53.89510271935831
 20
564.6229929270703
 30
0.0
  0
VERTEX
  5
1A1
330
17E
100
AcDbEntity
  8
Layer 1
 62
    40
370
    13
100
AcDbVertex
100
AcDb2dVertex
 10
55.10478340346344
 20
564.2892923656302
 30
0.0
  0
VERTEX
  5
1A2
330
17E
100
AcDbEntity
  8
Layer 1
 62
    40
370
    13
100
AcDbVertex
100
AcDb2dVertex
 10
56.35468557735886
 20
564.1767669343433
 30
0.0
  0
SEQEND
  5
1A3
330
17E
100
AcDbEntity
  8
Layer 1
 62
    40
370
    13
  0
ENDBLK
  5
104
330
101
100
AcDbEntity
  8
0
100
AcDbBlockEnd
  0
BLOCK
  5
1B4
330
1B2
100
AcDbEntity
  8
0
100
AcDbBlockBegin
  2
block 7
 70
     0
 10
0.0
 20
0.0
 30
0.0
  3
block 7
  1

  0
POLYLINE
  5
1B6
330
1B2
100
AcDbEntity
  8
Layer 1
 62
    40
370
    13
100
AcDb2dPolyline
 66
     1
 10
0.0
 20
0.0
 30
0.0
  0
VERTEX
  5
1B7
330
1B6
100
AcDbEntity
  8
Layer 1
 62
    40
370
    13
100
AcDbVertex
100
AcDb2dVertex
 10
292.3351135782596
 20
331.5108868316485
 30
0.0
  0
VERTEX
  5
1B8
330
1B6
100
AcDbEntity
  8
Layer 1
 62
    40
370
    13
100
AcDbVertex
100
AcDb2dVertex
 10
292.2687954901685
 20
331.2163096358129
 30
0.0
  0
VERTEX
  5
1B9
330
1B6
100
AcDbEntity
  8
Layer 1
 62
    40
370
    13
100
AcDbVertex
100
AcDb2dVertex
 10
292.1735386000014
 20
330.1562106913079
 30
0.0
  0
VERTEX
  5
1BA
330
1B6
100
AcDbEntity
  8
Layer 1
 62
    40
370
    13
100
AcDbVertex
100
AcDb2dVertex
 10
292.2687954901685
 20
328.9864069874446
 30
0.0
  0
VERTEX
  5
1BB
330
1B6
100
AcDbEntity
  8
Layer 1
 62
    40
370
    13
100
AcDbVertex
100
AcDb2dVertex
 10
292.550302855007
 20
327.7513402559825
 30
0.0
  0
VERTEX
  5
1BC
330
1B6
100
AcDbEntity
  8
Layer 1
 62
    40
370
    13
100
AcDbVertex
100
AcDb2dVertex
 10
293.0078545991418
 20
326.4993279611024
 30
0.0
  0
VERTEX
  5
1BD
330
1B6
100
AcDbEntity
  8
Layer 1
 62
    40
370
    13
100
AcDbVertex
100
AcDb2dVertex
 10
293.6234500986623
 20
325.2776540383392
 30
0.0
  0
VERTEX
  5
1BE
330
1B6
100
AcDbEntity
  8
Layer 1
 62
    40
370
    13
100
AcDbVertex
100
AcDb2dVertex
 10
294.3734473858012
 20
324.1339469327766
 30
0.0
  0
VERTEX
  5
1BF
330
1B6
100
AcDbEntity
  8
Layer 1
 62
    40
370
    13
100
AcDbVertex
100
AcDb2dVertex
 10
295.2292952317244
 20
323.1115933156819
 30
0.0
  0
VERTEX
  5
1C0
330
1B6
100
AcDbEntity
  8
Layer 1
 62
    40
370
    13
100
AcDbVertex
100
AcDb2dVertex
 10
296.1577915286928
 20
322.250470167297
 30
0.0
  0
VERTEX
  5
1C1
330
1B6
100
AcDbEntity
  8
Layer 1
 62
    40
370
    13
100
AcDbVertex
100
AcDb2dVertex
 10
297.1233656658212
 20
321.5830044488766
 30
0.0
  0
SEQEND
  5
1C2
330
1B6
100
AcDbEntity
  8
Layer 1
 62
    40
370
    13
  0
POLYLINE
  5
1C3
330
1B2
100
AcDbEntity
  8
Layer 1
 62
    40
370
    13
100
AcDb2dPolyline
 66
     1
 10
0.0
 20
0.0
 30
0.0
  0
VERTEX
  5
1C4
330
1C3
100
AcDbEntity
  8
Layer 1
 62
    40
370
    13
100
AcDbVertex
100
AcDb2dVertex
 10
297.1233656658212
 20
321.5830044488766
 30
0.0
  0
VERTEX
  5
1C5
330
1C3
100
AcDbEntity
  8
Layer 1
 62
    40
370
    13
100
AcDbVertex
100
AcDb2dVertex
 10
298.088896739256
 20
321.1353358224152
 30
0.0
  0
VERTEX
  5
1C6
330
1C3
100
AcDbEntity
  8
Layer 1
 62
    40
370
    13
100
AcDbVertex
100
AcDb2dVertex
 10
298.3760885116452
 20
321.0460863175004
 30
0.0
  0
SEQEND
  5
1C7
330
1C3
100
AcDbEntity
  8
Layer 1
 62
    40
370
    13
  0
POLYLINE
  5
1C8
330
1B2
100
AcDbEntity
  8
Layer 1
 62
    40
370
    13
100
AcDb2dPolyline
 66
     1
 10
0.0
 20
0.0
 30
0.0
  0
VERTEX
  5
1C9
330
1C8
100
AcDbEntity
  8
Layer 1
 62
    40
370
    13
100
AcDbVertex
100
AcDb2dVertex
 10
292.3351135782596
 20
372.337852153473
 30
0.0
  0
VERTEX
  5
1CA
330
1C8
100
AcDbEntity
  8
Layer 1
 62
    40
370
    13
100
AcDbVertex
100
AcDb2dVertex
 10
292.2687954901685
 20
372.0436409990327
 30
0.0
  0
VERTEX
  5
1CB
330
1C8
100
AcDbEntity
  8
Layer 1
 62
    40
370
    13
100
AcDbVertex
100
AcDb2dVertex
 10
292.1735386000014
 20
370.9831760131324
 30
0.0
  0
VERTEX
  5
1CC
330
1C8
100
AcDbEntity
  8
Layer 1
 62
    40
370
    13
100
AcDbVertex
100
AcDb2dVertex
 10
292.2687954901685
 20
369.8133723092691
 30
0.0
  0
VERTEX
  5
1CD
330
1C8
100
AcDbEntity
  8
Layer 1
 62
    40
370
    13
100
AcDbVertex
100
AcDb2dVertex
 10
292.550302855007
 20
368.578305577807
 30
0.0
  0
VERTEX
  5
1CE
330
1C8
100
AcDbEntity
  8
Layer 1
 62
    40
370
    13
100
AcDbVertex
100
AcDb2dVertex
 10
293.0078545991418
 20
367.3262932829269
 30
0.0
  0
VERTEX
  5
1CF
330
1C8
100
AcDbEntity
  8
Layer 1
 62
    40
370
    13
100
AcDbVertex
100
AcDb2dVertex
 10
293.6234500986623
 20
366.1046193601637
 30
0.0
  0
VERTEX
  5
1D0
330
1C8
100
AcDbEntity
  8
Layer 1
 62
    40
370
    13
100
AcDbVertex
100
AcDb2dVertex
 10
294.3734473858012
 20
364.9609122546011
 30
0.0
  0
VERTEX
  5
1D1
330
1C8
100
AcDbEntity
  8
Layer 1
 62
    40
370
    13
100
AcDbVertex
100
AcDb2dVertex
 10
295.2292952317244
 20
363.9385586375064
 30
0.0
  0
VERTEX
  5
1D2
330
1C8
100
AcDbEntity
  8
Layer 1
 62
    40
370
    13
100
AcDbVertex
100
AcDb2dVertex
 10
296.1577915286928
 20
363.0774354891215
 30
0.0
  0
VERTEX
  5
1D3
330
1C8
100
AcDbEntity
  8
Layer 1
 62
    40
370
    13
100
AcDbVertex
100
AcDb2dVertex
 10
297.1233656658212
 20
362.4099697707011
 30
0.0
  0
SEQEND
  5
1D4
330
1C8
100
AcDbEntity
  8
Layer 1
 62
    40
370
    13
  0
POLYLINE
  5
1D5
330
1B2
100
AcDbEntity
  8
Layer 1
 62
    40
370
    13
100
AcDb2dPolyline
 66
     1
 10
0.0
 20
0.0
 30
0.0
  0
VERTEX
  5
1D6
330
1D5
100
AcDbEntity
  8
Layer 1
 62
    40
370
    13
100
AcDbVertex
100
AcDb2dVertex
 10
297.1233656658212
 20
362.4099697707011
 30
0.0
  0
VERTEX
  5
1D7
330
1D5
100
AcDbEntity
  8
Layer 1
 62
    40
370
    13
100
AcDbVertex
100
AcDb2dVertex
 10
298.088896739256
 20
361.9623011442397
 30
0.0
  0
VERTEX
  5
1D8
330
1D5
100
AcDbEntity
  8
Layer 1
 62
    40
370
    13
100
AcDbVertex
100
AcDb2dVertex
 10
298.3760885116452
 20
361.8730516393249
 30
0.0
  0
SEQEND
  5
1D9
330
1D5
100
AcDbEntity
  8
Layer 1
 62
    40
370
    13
  0
POLYLINE
  5
1DA
330
1B2
100
AcDbEntity
  8
Layer 1
 62
    40
370
    13
100
AcDb2dPolyline
 66
     1
 10
0.0
 20
0.0
 30
0.0
  0
VERTEX
  5
1DB
330
1DA
100
AcDbEntity
  8
Layer 1
 62
    40
370
    13
100
AcDbVertex
100
AcDb2dVertex
 10
292.3351135782596
 20
510.3331973405993
 30
0.0
  0
VERTEX
  5
1DC
330
1DA
100
AcDbEntity
  8
Layer 1
 62
    40
370
    13
100
AcDbVertex
100
AcDb2dVertex
 10
292.2687954901685
 20
510.038986186159
 30
0.0
  0
VERTEX
  5
1DD
330
1DA
100
AcDbEntity
  8
Layer 1
 62
    40
370
    13
100
AcDbVertex
100
AcDb2dVertex
 10
292.1735386000014
 20
508.9785427321056
 30
0.0
  0
VERTEX
  5
1DE
330
1DA
100
AcDbEntity
  8
Layer 1
 62
    40
370
    13
100
AcDbVertex
100
AcDb2dVertex
 10
292.2687954901685
 20
507.8087174963954
 30
0.0
  0
VERTEX
  5
1DF
330
1DA
100
AcDbEntity
  8
Layer 1
 62
    40
370
    13
100
AcDbVertex
100
AcDb2dVertex
 10
292.550302855007
 20
506.5739952744818
 30
0.0
  0
VERTEX
  5
1E0
330
1DA
100
AcDbEntity
  8
Layer 1
 62
    40
370
    13
100
AcDbVertex
100
AcDb2dVertex
 10
293.0078545991418
 20
505.3216600018999
 30
0.0
  0
VERTEX
  5
1E1
330
1DA
100
AcDbEntity
  8
Layer 1
 62
    40
370
    13
100
AcDbVertex
100
AcDb2dVertex
 10
293.6234500986623
 20
504.0999860791368
 30
0.0
  0
VERTEX
  5
1E2
330
1DA
100
AcDbEntity
  8
Layer 1
 62
    40
370
    13
100
AcDbVertex
100
AcDb2dVertex
 10
294.3734473858012
 20
502.9562574417274
 30
0.0
  0
VERTEX
  5
1E3
330
1DA
100
AcDbEntity
  8
Layer 1
 62
    40
370
    13
100
AcDbVertex
100
AcDb2dVertex
 10
295.2292952317244
 20
501.9339253564795
 30
0.0
  0
VERTEX
  5
1E4
330
1DA
100
AcDbEntity
  8
Layer 1
 62
    40
370
    13
100
AcDbVertex
100
AcDb2dVertex
 10
296.1577915286928
 20
501.0727806762478
 30
0.0
  0
VERTEX
  5
1E5
330
1DA
100
AcDbEntity
  8
Layer 1
 62
    40
370
    13
100
AcDbVertex
100
AcDb2dVertex
 10
297.1233656658212
 20
500.4053364896742
 30
0.0
  0
SEQEND
  5
1E6
330
1DA
100
AcDbEntity
  8
Layer 1
 62
    40
370
    13
  0
POLYLINE
  5
1E7
330
1B2
100
AcDbEntity
  8
Layer 1
 62
    40
370
    13
100
AcDb2dPolyline
 66
     1
 10
0.0
 20
0.0
 30
0.0
  0
VERTEX
  5
1E8
330
1E7
100
AcDbEntity
  8
Layer 1
 62
    40
370
    13
100
AcDbVertex
100
AcDb2dVertex
 10
297.1233656658212
 20
500.4053364896742
 30
0.0
  0
VERTEX
  5
1E9
330
1E7
100
AcDbEntity
  8
Layer 1
 62
    40
370
    13
100
AcDbVertex
100
AcDb2dVertex
 10
298.088896739256
 20
499.9576463313659
 30
0.0
  0
VERTEX
  5
1EA
330
1E7
100
AcDbEntity
  8
Layer 1
 62
    40
370
    13
100
AcDbVertex
100
AcDb2dVertex
 10
298.3760885116452
 20
499.868418358298
 30
0.0
  0
SEQEND
  5
1EB
330
1E7
100
AcDbEntity
  8
Layer 1
 62
    40
370
    13
  0
POLYLINE
  5
1EC
330
1B2
100
AcDbEntity
  8
Layer 1
 62
    40
370
    13
100
AcDb2dPolyline
 66
     1
 10
0.0
 20
0.0
 30
0.0
  0
VERTEX
  5
1ED
330
1EC
100
AcDbEntity
  8
Layer 1
 62
    40
370
    13
100
AcDbVertex
100
AcDb2dVertex
 10
292.3351135782596
 20
551.1601626624239
 30
0.0
  0
VERTEX
  5
1EE
330
1EC
100
AcDbEntity
  8
Layer 1
 62
    40
370
    13
100
AcDbVertex
100
AcDb2dVertex
 10
292.2687954901685
 20
550.8659515079835
 30
0.0
  0
VERTEX
  5
1EF
330
1EC
100
AcDbEntity
  8
Layer 1
 62
    40
370
    13
100
AcDbVertex
100
AcDb2dVertex
 10
292.1735386000014
 20
549.8058525634785
 30
0.0
  0
VERTEX
  5
1F0
330
1EC
100
AcDbEntity
  8
Layer 1
 62
    40
370
    13
100
AcDbVertex
100
AcDb2dVertex
 10
292.2687954901685
 20
548.6357258819135
 30
0.0
  0
VERTEX
  5
1F1
330
1EC
100
AcDbEntity
  8
Layer 1
 62
    40
370
    13
100
AcDbVertex
100
AcDb2dVertex
 10
292.550302855007
 20
547.4010036599999
 30
0.0
  0
VERTEX
  5
1F2
330
1EC
100
AcDbEntity
  8
Layer 1
 62
    40
370
    13
100
AcDbVertex
100
AcDb2dVertex
 10
293.0078545991418
 20
546.1486253237244
 30
0.0
  0
VERTEX
  5
1F3
330
1EC
100
AcDbEntity
  8
Layer 1
 62
    40
370
    13
100
AcDbVertex
100
AcDb2dVertex
 10
293.6234500986623
 20
544.9269514009613
 30
0.0
  0
VERTEX
  5
1F4
330
1EC
100
AcDbEntity
  8
Layer 1
 62
    40
370
    13
100
AcDbVertex
100
AcDb2dVertex
 10
294.3734473858012
 20
543.7832658272455
 30
0.0
  0
VERTEX
  5
1F5
330
1EC
100
AcDbEntity
  8
Layer 1
 62
    40
370
    13
100
AcDbVertex
100
AcDb2dVertex
 10
295.2292952317244
 20
542.7612351878525
 30
0.0
  0
VERTEX
  5
1F6
330
1EC
100
AcDbEntity
  8
Layer 1
 62
    40
370
    13
100
AcDbVertex
100
AcDb2dVertex
 10
296.1577915286928
 20
541.8997459980723
 30
0.0
  0
VERTEX
  5
1F7
330
1EC
100
AcDbEntity
  8
Layer 1
 62
    40
370
    13
100
AcDbVertex
100
AcDb2dVertex
 10
297.1233656658212
 20
541.2326463210472
 30
0.0
  0
SEQEND
  5
1F8
330
1EC
100
AcDbEntity
  8
Layer 1
 62
    40
370
    13
  0
POLYLINE
  5
1F9
330
1B2
100
AcDbEntity
  8
Layer 1
 62
    40
370
    13
100
AcDb2dPolyline
 66
     1
 10
0.0
 20
0.0
 30
0.0
  0
VERTEX
  5
1FA
330
1F9
100
AcDbEntity
  8
Layer 1
 62
    40
370
    13
100
AcDbVertex
100
AcDb2dVertex
 10
297.1233656658212
 20
541.2326463210472
 30
0.0
  0
VERTEX
  5
1FB
330
1F9
100
AcDbEntity
  8
Layer 1
 62
    40
370
    13
100
AcDbVertex
100
AcDb2dVertex
 10
298.088896739256
 20
540.7849992264325
 30
0.0
  0
VERTEX
  5
1FC
330
1F9
100
AcDbEntity
  8
Layer 1
 62
    40
370
    13
100
AcDbVertex
100
AcDb2dVertex
 10
298.3760885116452
 20
540.6953836801225
 30
0.0
  0
SEQEND
  5
1FD
330
1F9
100
AcDbEntity
  8
Layer 1
 62
    40
370
    13
  0
POLYLINE
  5
1FE
330
1B2
100
AcDbEntity
  8
Layer 1
 62
    40
370
    13
100
AcDb2dPolyline
 66
     1
 10
0.0
 20
0.0
 30
0.0
  0
VERTEX
  5
1FF
330
1FE
100
AcDbEntity
  8
Layer 1
 62
    40
370
    13
100
AcDbVertex
100
AcDb2dVertex
 10
323.6398780425471
 20
550.4211035534506
 30
0.0
  0
VERTEX
  5
200
330
1FE
100
AcDbEntity
  8
Layer 1
 62
    40
370
    13
100
AcDbVertex
100
AcDb2dVertex
 10
270.6068102254018
 20
581.0362460289782
 30
0.0
  0
SEQEND
  5
201
330
1FE
100
AcDbEntity
  8
Layer 1
 62
    40
370
    13
  0
POLYLINE
  5
202
330
1B2
100
AcDbEntity
  8
Layer 1
 62
    40
370
    13
100
AcDb2dPolyline
 66
     1
 10
0.0
 20
0.0
 30
0.0
  0
VERTEX
  5
203
330
202
100
AcDbEntity
  8
Layer 1
 62
    40
370
    13
100
AcDbVertex
100
AcDb2dVertex
 10
270.6068102254018
 20
581.0362460289782
 30
0.0
  0
VERTEX
  5
204
330
202
100
AcDbEntity
  8
Layer 1
 62
    40
370
    13
100
AcDbVertex
100
AcDb2dVertex
 10
267.0712809836641
 20
578.9954145272098
 30
0.0
  0
SEQEND
  5
205
330
202
100
AcDbEntity
  8
Layer 1
 62
    40
370
    13
  0
POLYLINE
  5
206
330
1B2
100
AcDbEntity
  8
Layer 1
 62
    40
370
    13
100
AcDb2dPolyline
 66
     1
 10
0.0
 20
0.0
 30
0.0
  0
VERTEX
  5
207
330
206
100
AcDbEntity
  8
Layer 1
 62
    40
370
    13
100
AcDbVertex
100
AcDb2dVertex
 10
323.6398780425471
 20
293.2108559845612
 30
0.0
  0
VERTEX
  5
208
330
206
100
AcDbEntity
  8
Layer 1
 62
    40
370
    13
100
AcDbVertex
100
AcDb2dVertex
 10
320.1043488008095
 20
291.1696799732442
 30
0.0
  0
SEQEND
  5
209
330
206
100
AcDbEntity
  8
Layer 1
 62
    40
370
    13
  0
POLYLINE
  5
20A
330
1B2
100
AcDbEntity
  8
Layer 1
 62
    40
370
    13
100
AcDb2dPolyline
 66
     1
 10
0.0
 20
0.0
 30
0.0
  0
VERTEX
  5
20B
330
20A
100
AcDbEntity
  8
Layer 1
 62
    40
370
    13
100
AcDbVertex
100
AcDb2dVertex
 10
323.6398780425471
 20
293.2108559845612
 30
0.0
  0
VERTEX
  5
20C
330
20A
100
AcDbEntity
  8
Layer 1
 62
    40
370
    13
100
AcDbVertex
100
AcDb2dVertex
 10
323.6398780425471
 20
550.4211035534506
 30
0.0
  0
SEQEND
  5
20D
330
20A
100
AcDbEntity
  8
Layer 1
 62
    40
370
    13
  0
POLYLINE
  5
20E
330
1B2
100
AcDbEntity
  8
Layer 1
 62
    40
370
    13
100
AcDb2dPolyline
 66
     1
 10
0.0
 20
0.0
 30
0.0
  0
VERTEX
  5
20F
330
20E
100
AcDbEntity
  8
Layer 1
 62
    40
370
    13
100
AcDbVertex
100
AcDb2dVertex
 10
323.6398780425471
 20
550.4211035534506
 30
0.0
  0
VERTEX
  5
210
330
20E
100
AcDbEntity
  8
Layer 1
 62
    40
370
    13
100
AcDbVertex
100
AcDb2dVertex
 10
320.1043488008095
 20
548.3799275421336
 30
0.0
  0
SEQEND
  5
211
330
20E
100
AcDbEntity
  8
Layer 1
 62
    40
370
    13
  0
POLYLINE
  5
212
330
1B2
100
AcDbEntity
  8
Layer 1
 62
    40
370
    13
100
AcDb2dPolyline
 66
     1
 10
0.0
 20
0.0
 30
0.0
  0
VERTEX
  5
213
330
212
100
AcDbEntity
  8
Layer 1
 62
    40
370
    13
100
AcDbVertex
100
AcDb2dVertex
 10
267.0712809836641
 20
578.9954145272098
 30
0.0
  0
VERTEX
  5
214
330
212
100
AcDbEntity
  8
Layer 1
 62
    40
370
    13
100
AcDbVertex
100
AcDb2dVertex
 10
267.0712809836641
 20
321.7851454264736
 30
0.0
  0
SEQEND
  5
215
330
212
100
AcDbEntity
  8
Layer 1
 62
    40
370
    13
  0
POLYLINE
  5
216
330
1B2
100
AcDbEntity
  8
Layer 1
 62
    40
370
    13
100
AcDb2dPolyline
 66
     1
 10
0.0
 20
0.0
 30
0.0
  0
VERTEX
  5
217
330
216
100
AcDbEntity
  8
Layer 1
 62
    40
370
    13
100
AcDbVertex
100
AcDb2dVertex
 10
267.0712809836641
 20
321.7851454264736
 30
0.0
  0
VERTEX
  5
218
330
216
100
AcDbEntity
  8
Layer 1
 62
    40
370
    13
100
AcDbVertex
100
AcDb2dVertex
 10
320.1043488008095
 20
291.1696799732442
 30
0.0
  0
SEQEND
  5
219
330
216
100
AcDbEntity
  8
Layer 1
 62
    40
370
    13
  0
POLYLINE
  5
21A
330
1B2
100
AcDbEntity
  8
Layer 1
 62
    40
370
    13
100
AcDb2dPolyline
 66
     1
 10
0.0
 20
0.0
 30
0.0
  0
VERTEX
  5
21B
330
21A
100
AcDbEntity
  8
Layer 1
 62
    40
370
    13
100
AcDbVertex
100
AcDb2dVertex
 10
320.1043488008095
 20
291.1696799732442
 30
0.0
  0
VERTEX
  5
21C
330
21A
100
AcDbEntity
  8
Layer 1
 62
    40
370
    13
100
AcDbVertex
100
AcDb2dVertex
 10
320.1043488008095
 20
548.3799275421336
 30
0.0
  0
SEQEND
  5
21D
330
21A
100
AcDbEntity
  8
Layer 1
 62
    40
370
    13
  0
POLYLINE
  5
21E
330
1B2
100
AcDbEntity
  8
Layer 1
 62
    40
370
    13
100
AcDb2dPolyline
 66
     1
 10
0.0
 20
0.0
 30
0.0
  0
VERTEX
  5
21F
330
21E
100
AcDbEntity
  8
Layer 1
 62
    40
370
    13
100
AcDbVertex
100
AcDb2dVertex
 10
320.1043488008095
 20
548.3799275421336
 30
0.0
  0
VERTEX
  5
220
330
21E
100
AcDbEntity
  8
Layer 1
 62
    40
370
    13
100
AcDbVertex
100
AcDb2dVertex
 10
267.0712809836641
 20
578.9954145272098
 30
0.0
  0
SEQEND
  5
221
330
21E
100
AcDbEntity
  8
Layer 1
 62
    40
370
    13
  0
POLYLINE
  5
222
330
1B2
100
AcDbEntity
  8
Layer 1
 62
    40
370
    13
100
AcDb2dPolyline
 66
     1
 10
0.0
 20
0.0
 30
0.0
  0
VERTEX
  5
223
330
222
100
AcDbEntity
  8
Layer 1
 62
    40
370
    13
100
AcDbVertex
100
AcDb2dVertex
 10
293.5878364240835
 20
319.542194478955
 30
0.0
  0
VERTEX
  5
224
330
222
100
AcDbEntity
  8
Layer 1
 62
    40
370
    13
100
AcDbVertex
100
AcDb2dVertex
 10
294.5533674975184
 20
319.0945258524935
 30
0.0
  0
VERTEX
  5
225
330
222
100
AcDbEntity
  8
Layer 1
 62
    40
370
    13
100
AcDbVertex
100
AcDb2dVertex
 10
295.4818637944868
 20
318.8835568177155
 30
0.0
  0
VERTEX
  5
226
330
222
100
AcDbEntity
  8
Layer 1
 62
    40
370
    13
100
AcDbVertex
100
AcDb2dVertex
 10
296.33771164041
 20
318.9177709222534
 30
0.0
  0
VERTEX
  5
227
330
222
100
AcDbEntity
  8
Layer 1
 62
    40
370
    13
100
AcDbVertex
100
AcDb2dVertex
 10
297.0877089275489
 20
319.1957685960663
 30
0.0
  0
VERTEX
  5
228
330
222
100
AcDbEntity
  8
Layer 1
 62
    40
370
    13
100
AcDbVertex
100
AcDb2dVertex
 10
297.7033044270694
 20
319.7065901291417
 30
0.0
  0
VERTEX
  5
229
330
222
100
AcDbEntity
  8
Layer 1
 62
    40
370
    13
100
AcDbVertex
100
AcDb2dVertex
 10
298.1608561712042
 20
320.4304908179798
 30
0.0
  0
VERTEX
  5
22A
330
222
100
AcDbEntity
  8
Layer 1
 62
    40
370
    13
100
AcDbVertex
100
AcDb2dVertex
 10
298.4424065997363
 20
321.3402974719407
 30
0.0
  0
VERTEX
  5
22B
330
222
100
AcDbEntity
  8
Layer 1
 62
    40
370
    13
100
AcDbVertex
100
AcDb2dVertex
 10
298.5376204262099
 20
322.4003964164457
 30
0.0
  0
VERTEX
  5
22C
330
222
100
AcDbEntity
  8
Layer 1
 62
    40
370
    13
100
AcDbVertex
100
AcDb2dVertex
 10
298.4424065997363
 20
323.5705661617043
 30
0.0
  0
VERTEX
  5
22D
330
222
100
AcDbEntity
  8
Layer 1
 62
    40
370
    13
100
AcDbVertex
100
AcDb2dVertex
 10
298.1608561712042
 20
324.8052883836179
 30
0.0
  0
VERTEX
  5
22E
330
222
100
AcDbEntity
  8
Layer 1
 62
    40
370
    13
100
AcDbVertex
100
AcDb2dVertex
 10
297.7033044270694
 20
326.0576451880466
 30
0.0
  0
VERTEX
  5
22F
330
222
100
AcDbEntity
  8
Layer 1
 62
    40
370
    13
100
AcDbVertex
100
AcDb2dVertex
 10
297.0877089275489
 20
327.2789530694144
 30
0.0
  0
VERTEX
  5
230
330
222
100
AcDbEntity
  8
Layer 1
 62
    40
370
    13
100
AcDbVertex
100
AcDb2dVertex
 10
296.33771164041
 20
328.422660174977
 30
0.0
  0
VERTEX
  5
231
330
222
100
AcDbEntity
  8
Layer 1
 62
    40
370
    13
100
AcDbVertex
100
AcDb2dVertex
 10
295.4818637944868
 20
329.4450137920717
 30
0.0
  0
VERTEX
  5
232
330
222
100
AcDbEntity
  8
Layer 1
 62
    40
370
    13
100
AcDbVertex
100
AcDb2dVertex
 10
294.5533674975184
 20
330.3061369404567
 30
0.0
  0
VERTEX
  5
233
330
222
100
AcDbEntity
  8
Layer 1
 62
    40
370
    13
100
AcDbVertex
100
AcDb2dVertex
 10
293.5878364240835
 20
330.973602658877
 30
0.0
  0
VERTEX
  5
234
330
222
100
AcDbEntity
  8
Layer 1
 62
    40
370
    13
100
AcDbVertex
100
AcDb2dVertex
 10
292.6222622869552
 20
331.4212712853385
 30
0.0
  0
VERTEX
  5
235
330
222
100
AcDbEntity
  8
Layer 1
 62
    40
370
    13
100
AcDbVertex
100
AcDb2dVertex
 10
291.6937659899868
 20
331.6318958105679
 30
0.0
  0
VERTEX
  5
236
330
222
100
AcDbEntity
  8
Layer 1
 62
    40
370
    13
100
AcDbVertex
100
AcDb2dVertex
 10
290.8379181440636
 20
331.5976601741833
 30
0.0
  0
VERTEX
  5
237
330
222
100
AcDbEntity
  8
Layer 1
 62
    40
370
    13
100
AcDbVertex
100
AcDb2dVertex
 10
290.0879208569247
 20
331.3200285417657
 30
0.0
  0
VERTEX
  5
238
330
222
100
AcDbEntity
  8
Layer 1
 62
    40
370
    13
100
AcDbVertex
100
AcDb2dVertex
 10
289.4723253574041
 20
330.8092070086903
 30
0.0
  0
VERTEX
  5
239
330
222
100
AcDbEntity
  8
Layer 1
 62
    40
370
    13
100
AcDbVertex
100
AcDb2dVertex
 10
289.0147736132694
 20
330.0849618103036
 30
0.0
  0
VERTEX
  5
23A
330
222
100
AcDbEntity
  8
Layer 1
 62
    40
370
    13
100
AcDbVertex
100
AcDb2dVertex
 10
288.7332231847373
 20
329.1754996658912
 30
0.0
  0
VERTEX
  5
23B
330
222
100
AcDbEntity
  8
Layer 1
 62
    40
370
    13
100
AcDbVertex
100
AcDb2dVertex
 10
288.6380093582637
 20
328.1154007213863
 30
0.0
  0
VERTEX
  5
23C
330
222
100
AcDbEntity
  8
Layer 1
 62
    40
370
    13
100
AcDbVertex
100
AcDb2dVertex
 10
288.7332231847373
 20
326.9452309761276
 30
0.0
  0
VERTEX
  5
23D
330
222
100
AcDbEntity
  8
Layer 1
 62
    40
370
    13
100
AcDbVertex
100
AcDb2dVertex
 10
289.0147736132694
 20
325.7105087542141
 30
0.0
  0
VERTEX
  5
23E
330
222
100
AcDbEntity
  8
Layer 1
 62
    40
370
    13
100
AcDbVertex
100
AcDb2dVertex
 10
289.4723253574041
 20
324.4581519497854
 30
0.0
  0
VERTEX
  5
23F
330
222
100
AcDbEntity
  8
Layer 1
 62
    40
370
    13
100
AcDbVertex
100
AcDb2dVertex
 10
290.0879208569247
 20
323.2364780270223
 30
0.0
  0
VERTEX
  5
240
330
222
100
AcDbEntity
  8
Layer 1
 62
    40
370
    13
100
AcDbVertex
100
AcDb2dVertex
 10
290.8379181440636
 20
322.0927709214596
 30
0.0
  0
VERTEX
  5
241
330
222
100
AcDbEntity
  8
Layer 1
 62
    40
370
    13
100
AcDbVertex
100
AcDb2dVertex
 10
291.6937659899868
 20
321.0707833457603
 30
0.0
  0
VERTEX
  5
242
330
222
100
AcDbEntity
  8
Layer 1
 62
    40
370
    13
100
AcDbVertex
100
AcDb2dVertex
 10
292.6222622869552
 20
320.20929415598
 30
0.0
  0
VERTEX
  5
243
330
222
100
AcDbEntity
  8
Layer 1
 62
    40
370
    13
100
AcDbVertex
100
AcDb2dVertex
 10
293.5878364240835
 20
319.542194478955
 30
0.0
  0
SEQEND
  5
244
330
222
100
AcDbEntity
  8
Layer 1
 62
    40
370
    13
  0
POLYLINE
  5
245
330
1B2
100
AcDbEntity
  8
Layer 1
 62
    40
370
    13
100
AcDb2dPolyline
 66
     1
 10
0.0
 20
0.0
 30
0.0
  0
VERTEX
  5
246
330
245
100
AcDbEntity
  8
Layer 1
 62
    40
370
    13
100
AcDbVertex
100
AcDb2dVertex
 10
293.5878364240835
 20
360.3691598007795
 30
0.0
  0
VERTEX
  5
247
330
245
100
AcDbEntity
  8
Layer 1
 62
    40
370
    13
100
AcDbVertex
100
AcDb2dVertex
 10
294.5533674975184
 20
359.921491174318
 30
0.0
  0
VERTEX
  5
248
330
245
100
AcDbEntity
  8
Layer 1
 62
    40
370
    13
100
AcDbVertex
100
AcDb2dVertex
 10
295.4818637944868
 20
359.71052213954
 30
0.0
  0
VERTEX
  5
249
330
245
100
AcDbEntity
  8
Layer 1
 62
    40
370
    13
100
AcDbVertex
100
AcDb2dVertex
 10
296.33771164041
 20
359.7447362440779
 30
0.0
  0
VERTEX
  5
24A
330
245
100
AcDbEntity
  8
Layer 1
 62
    40
370
    13
100
AcDbVertex
100
AcDb2dVertex
 10
297.0877089275489
 20
360.0227339178908
 30
0.0
  0
VERTEX
  5
24B
330
245
100
AcDbEntity
  8
Layer 1
 62
    40
370
    13
100
AcDbVertex
100
AcDb2dVertex
 10
297.7033044270694
 20
360.5335554509662
 30
0.0
  0
VERTEX
  5
24C
330
245
100
AcDbEntity
  8
Layer 1
 62
    40
370
    13
100
AcDbVertex
100
AcDb2dVertex
 10
298.1608561712042
 20
361.2574561398043
 30
0.0
  0
VERTEX
  5
24D
330
245
100
AcDbEntity
  8
Layer 1
 62
    40
370
    13
100
AcDbVertex
100
AcDb2dVertex
 10
298.4424065997363
 20
362.1672627937652
 30
0.0
  0
VERTEX
  5
24E
330
245
100
AcDbEntity
  8
Layer 1
 62
    40
370
    13
100
AcDbVertex
100
AcDb2dVertex
 10
298.5376204262099
 20
363.2273617382702
 30
0.0
  0
VERTEX
  5
24F
330
245
100
AcDbEntity
  8
Layer 1
 62
    40
370
    13
100
AcDbVertex
100
AcDb2dVertex
 10
298.4424065997363
 20
364.3975314835289
 30
0.0
  0
VERTEX
  5
250
330
245
100
AcDbEntity
  8
Layer 1
 62
    40
370
    13
100
AcDbVertex
100
AcDb2dVertex
 10
298.1608561712042
 20
365.6322537054424
 30
0.0
  0
VERTEX
  5
251
330
245
100
AcDbEntity
  8
Layer 1
 62
    40
370
    13
100
AcDbVertex
100
AcDb2dVertex
 10
297.7033044270694
 20
366.8846105098711
 30
0.0
  0
VERTEX
  5
252
330
245
100
AcDbEntity
  8
Layer 1
 62
    40
370
    13
100
AcDbVertex
100
AcDb2dVertex
 10
297.0877089275489
 20
368.1059183912389
 30
0.0
  0
VERTEX
  5
253
330
245
100
AcDbEntity
  8
Layer 1
 62
    40
370
    13
100
AcDbVertex
100
AcDb2dVertex
 10
296.33771164041
 20
369.2499915381968
 30
0.0
  0
VERTEX
  5
254
330
245
100
AcDbEntity
  8
Layer 1
 62
    40
370
    13
100
AcDbVertex
100
AcDb2dVertex
 10
295.4818637944868
 20
370.2719791138962
 30
0.0
  0
VERTEX
  5
255
330
245
100
AcDbEntity
  8
Layer 1
 62
    40
370
    13
100
AcDbVertex
100
AcDb2dVertex
 10
294.5533674975184
 20
371.1334683036765
 30
0.0
  0
VERTEX
  5
256
330
245
100
AcDbEntity
  8
Layer 1
 62
    40
370
    13
100
AcDbVertex
100
AcDb2dVertex
 10
293.5878364240835
 20
371.8005679807015
 30
0.0
  0
VERTEX
  5
257
330
245
100
AcDbEntity
  8
Layer 1
 62
    40
370
    13
100
AcDbVertex
100
AcDb2dVertex
 10
292.6222622869552
 20
372.248236607163
 30
0.0
  0
VERTEX
  5
258
330
245
100
AcDbEntity
  8
Layer 1
 62
    40
370
    13
100
AcDbVertex
100
AcDb2dVertex
 10
291.6937659899868
 20
372.459205641941
 30
0.0
  0
VERTEX
  5
259
330
245
100
AcDbEntity
  8
Layer 1
 62
    40
370
    13
100
AcDbVertex
100
AcDb2dVertex
 10
290.8379181440636
 20
372.4249915374031
 30
0.0
  0
VERTEX
  5
25A
330
245
100
AcDbEntity
  8
Layer 1
 62
    40
370
    13
100
AcDbVertex
100
AcDb2dVertex
 10
290.0879208569247
 20
372.1469938635902
 30
0.0
  0
VERTEX
  5
25B
330
245
100
AcDbEntity
  8
Layer 1
 62
    40
370
    13
100
AcDbVertex
100
AcDb2dVertex
 10
289.4723253574041
 20
371.6361723305148
 30
0.0
  0
VERTEX
  5
25C
330
245
100
AcDbEntity
  8
Layer 1
 62
    40
370
    13
100
AcDbVertex
100
AcDb2dVertex
 10
289.0147736132694
 20
370.9122716416767
 30
0.0
  0
VERTEX
  5
25D
330
245
100
AcDbEntity
  8
Layer 1
 62
    40
370
    13
100
AcDbVertex
100
AcDb2dVertex
 10
288.7332231847373
 20
370.0024649877158
 30
0.0
  0
VERTEX
  5
25E
330
245
100
AcDbEntity
  8
Layer 1
 62
    40
370
    13
100
AcDbVertex
100
AcDb2dVertex
 10
288.6380093582637
 20
368.9423660432108
 30
0.0
  0
VERTEX
  5
25F
330
245
100
AcDbEntity
  8
Layer 1
 62
    40
370
    13
100
AcDbVertex
100
AcDb2dVertex
 10
288.7332231847373
 20
367.7721962979521
 30
0.0
  0
VERTEX
  5
260
330
245
100
AcDbEntity
  8
Layer 1
 62
    40
370
    13
100
AcDbVertex
100
AcDb2dVertex
 10
289.0147736132694
 20
366.5374740760386
 30
0.0
  0
VERTEX
  5
261
330
245
100
AcDbEntity
  8
Layer 1
 62
    40
370
    13
100
AcDbVertex
100
AcDb2dVertex
 10
289.4723253574041
 20
365.2851172716099
 30
0.0
  0
VERTEX
  5
262
330
245
100
AcDbEntity
  8
Layer 1
 62
    40
370
    13
100
AcDbVertex
100
AcDb2dVertex
 10
290.0879208569247
 20
364.0638093902421
 30
0.0
  0
VERTEX
  5
263
330
245
100
AcDbEntity
  8
Layer 1
 62
    40
370
    13
100
AcDbVertex
100
AcDb2dVertex
 10
290.8379181440636
 20
362.9197362432841
 30
0.0
  0
VERTEX
  5
264
330
245
100
AcDbEntity
  8
Layer 1
 62
    40
370
    13
100
AcDbVertex
100
AcDb2dVertex
 10
291.6937659899868
 20
361.8977486675848
 30
0.0
  0
VERTEX
  5
265
330
245
100
AcDbEntity
  8
Layer 1
 62
    40
370
    13
100
AcDbVertex
100
AcDb2dVertex
 10
292.6222622869552
 20
361.0362594778045
 30
0.0
  0
VERTEX
  5
266
330
245
100
AcDbEntity
  8
Layer 1
 62
    40
370
    13
100
AcDbVertex
100
AcDb2dVertex
 10
293.5878364240835
 20
360.3691598007795
 30
0.0
  0
SEQEND
  5
267
330
245
100
AcDbEntity
  8
Layer 1
 62
    40
370
    13
  0
POLYLINE
  5
268
330
1B2
100
AcDbEntity
  8
Layer 1
 62
    40
370
    13
100
AcDb2dPolyline
 66
     1
 10
0.0
 20
0.0
 30
0.0
  0
VERTEX
  5
269
330
268
100
AcDbEntity
  8
Layer 1
 62
    40
370
    13
100
AcDbVertex
100
AcDb2dVertex
 10
293.5878364240835
 20
498.3645049879057
 30
0.0
  0
VERTEX
  5
26A
330
268
100
AcDbEntity
  8
Layer 1
 62
    40
370
    13
100
AcDbVertex
100
AcDb2dVertex
 10
294.5533674975184
 20
497.9168578932911
 30
0.0
  0
VERTEX
  5
26B
330
268
100
AcDbEntity
  8
Layer 1
 62
    40
370
    13
100
AcDbVertex
100
AcDb2dVertex
 10
295.4818637944868
 20
497.7058888585131
 30
0.0
  0
VERTEX
  5
26C
330
268
100
AcDbEntity
  8
Layer 1
 62
    40
370
    13
100
AcDbVertex
100
AcDb2dVertex
 10
296.33771164041
 20
497.7401244948978
 30
0.0
  0
VERTEX
  5
26D
330
268
100
AcDbEntity
  8
Layer 1
 62
    40
370
    13
100
AcDbVertex
100
AcDb2dVertex
 10
297.0877089275489
 20
498.0181006368639
 30
0.0
  0
VERTEX
  5
26E
330
268
100
AcDbEntity
  8
Layer 1
 62
    40
370
    13
100
AcDbVertex
100
AcDb2dVertex
 10
297.7033044270694
 20
498.5289221699393
 30
0.0
  0
VERTEX
  5
26F
330
268
100
AcDbEntity
  8
Layer 1
 62
    40
370
    13
100
AcDbVertex
100
AcDb2dVertex
 10
298.1608561712042
 20
499.2528228587774
 30
0.0
  0
VERTEX
  5
270
330
268
100
AcDbEntity
  8
Layer 1
 62
    40
370
    13
100
AcDbVertex
100
AcDb2dVertex
 10
298.4424065997363
 20
500.1626295127383
 30
0.0
  0
VERTEX
  5
271
330
268
100
AcDbEntity
  8
Layer 1
 62
    40
370
    13
100
AcDbVertex
100
AcDb2dVertex
 10
298.5376204262099
 20
501.2227284572432
 30
0.0
  0
VERTEX
  5
272
330
268
100
AcDbEntity
  8
Layer 1
 62
    40
370
    13
100
AcDbVertex
100
AcDb2dVertex
 10
298.4424065997363
 20
502.392898202502
 30
0.0
  0
VERTEX
  5
273
330
268
100
AcDbEntity
  8
Layer 1
 62
    40
370
    13
100
AcDbVertex
100
AcDb2dVertex
 10
298.1608561712042
 20
503.6276204244155
 30
0.0
  0
VERTEX
  5
274
330
268
100
AcDbEntity
  8
Layer 1
 62
    40
370
    13
100
AcDbVertex
100
AcDb2dVertex
 10
297.7033044270694
 20
504.8799556969973
 30
0.0
  0
VERTEX
  5
275
330
268
100
AcDbEntity
  8
Layer 1
 62
    40
370
    13
100
AcDbVertex
100
AcDb2dVertex
 10
297.0877089275489
 20
506.101285110212
 30
0.0
  0
VERTEX
  5
276
330
268
100
AcDbEntity
  8
Layer 1
 62
    40
370
    13
100
AcDbVertex
100
AcDb2dVertex
 10
296.33771164041
 20
507.2453582571699
 30
0.0
  0
VERTEX
  5
277
330
268
100
AcDbEntity
  8
Layer 1
 62
    40
370
    13
100
AcDbVertex
100
AcDb2dVertex
 10
295.4818637944868
 20
508.2673458328692
 30
0.0
  0
VERTEX
  5
278
330
268
100
AcDbEntity
  8
Layer 1
 62
    40
370
    13
100
AcDbVertex
100
AcDb2dVertex
 10
294.5533674975184
 20
509.1288350226495
 30
0.0
  0
VERTEX
  5
279
330
268
100
AcDbEntity
  8
Layer 1
 62
    40
370
    13
100
AcDbVertex
100
AcDb2dVertex
 10
293.5878364240835
 20
509.7959346996746
 30
0.0
  0
VERTEX
  5
27A
330
268
100
AcDbEntity
  8
Layer 1
 62
    40
370
    13
100
AcDbVertex
100
AcDb2dVertex
 10
292.6222622869552
 20
510.2436248579828
 30
0.0
  0
VERTEX
  5
27B
330
268
100
AcDbEntity
  8
Layer 1
 62
    40
370
    13
100
AcDbVertex
100
AcDb2dVertex
 10
291.6937659899868
 20
510.4545508290673
 30
0.0
  0
VERTEX
  5
27C
330
268
100
AcDbEntity
  8
Layer 1
 62
    40
370
    13
100
AcDbVertex
100
AcDb2dVertex
 10
290.8379181440636
 20
510.4203582563762
 30
0.0
  0
VERTEX
  5
27D
330
268
100
AcDbEntity
  8
Layer 1
 62
    40
370
    13
100
AcDbVertex
100
AcDb2dVertex
 10
290.0879208569247
 20
510.1423390507165
 30
0.0
  0
VERTEX
  5
27E
330
268
100
AcDbEntity
  8
Layer 1
 62
    40
370
    13
100
AcDbVertex
100
AcDb2dVertex
 10
289.4723253574041
 20
509.631517517641
 30
0.0
  0
VERTEX
  5
27F
330
268
100
AcDbEntity
  8
Layer 1
 62
    40
370
    13
100
AcDbVertex
100
AcDb2dVertex
 10
289.0147736132694
 20
508.9076168288029
 30
0.0
  0
VERTEX
  5
280
330
268
100
AcDbEntity
  8
Layer 1
 62
    40
370
    13
100
AcDbVertex
100
AcDb2dVertex
 10
288.7332231847373
 20
507.997810174842
 30
0.0
  0
VERTEX
  5
281
330
268
100
AcDbEntity
  8
Layer 1
 62
    40
370
    13
100
AcDbVertex
100
AcDb2dVertex
 10
288.6380093582637
 20
506.9377112303371
 30
0.0
  0
VERTEX
  5
282
330
268
100
AcDbEntity
  8
Layer 1
 62
    40
370
    13
100
AcDbVertex
100
AcDb2dVertex
 10
288.7332231847373
 20
505.7675414850784
 30
0.0
  0
VERTEX
  5
283
330
268
100
AcDbEntity
  8
Layer 1
 62
    40
370
    13
100
AcDbVertex
100
AcDb2dVertex
 10
289.0147736132694
 20
504.5328192631649
 30
0.0
  0
VERTEX
  5
284
330
268
100
AcDbEntity
  8
Layer 1
 62
    40
370
    13
100
AcDbVertex
100
AcDb2dVertex
 10
289.4723253574041
 20
503.280483990583
 30
0.0
  0
VERTEX
  5
285
330
268
100
AcDbEntity
  8
Layer 1
 62
    40
370
    13
100
AcDbVertex
100
AcDb2dVertex
 10
290.0879208569247
 20
502.0591545773684
 30
0.0
  0
VERTEX
  5
286
330
268
100
AcDbEntity
  8
Layer 1
 62
    40
370
    13
100
AcDbVertex
100
AcDb2dVertex
 10
290.8379181440636
 20
500.915124494104
 30
0.0
  0
VERTEX
  5
287
330
268
100
AcDbEntity
  8
Layer 1
 62
    40
370
    13
100
AcDbVertex
100
AcDb2dVertex
 10
291.6937659899868
 20
499.8930938547111
 30
0.0
  0
VERTEX
  5
288
330
268
100
AcDbEntity
  8
Layer 1
 62
    40
370
    13
100
AcDbVertex
100
AcDb2dVertex
 10
292.6222622869552
 20
499.0316046649308
 30
0.0
  0
VERTEX
  5
289
330
268
100
AcDbEntity
  8
Layer 1
 62
    40
370
    13
100
AcDbVertex
100
AcDb2dVertex
 10
293.5878364240835
 20
498.3645049879057
 30
0.0
  0
SEQEND
  5
28A
330
268
100
AcDbEntity
  8
Layer 1
 62
    40
370
    13
  0
POLYLINE
  5
28B
330
1B2
100
AcDbEntity
  8
Layer 1
 62
    40
370
    13
100
AcDb2dPolyline
 66
     1
 10
0.0
 20
0.0
 30
0.0
  0
VERTEX
  5
28C
330
28B
100
AcDbEntity
  8
Layer 1
 62
    40
370
    13
100
AcDbVertex
100
AcDb2dVertex
 10
293.5878364240835
 20
539.1915133734238
 30
0.0
  0
VERTEX
  5
28D
330
28B
100
AcDbEntity
  8
Layer 1
 62
    40
370
    13
100
AcDbVertex
100
AcDb2dVertex
 10
294.5533674975184
 20
538.7438232151156
 30
0.0
  0
VERTEX
  5
28E
330
28B
100
AcDbEntity
  8
Layer 1
 62
    40
370
    13
100
AcDbVertex
100
AcDb2dVertex
 10
295.4818637944868
 20
538.5331986898861
 30
0.0
  0
VERTEX
  5
28F
330
28B
100
AcDbEntity
  8
Layer 1
 62
    40
370
    13
100
AcDbVertex
100
AcDb2dVertex
 10
296.33771164041
 20
538.5674343262708
 30
0.0
  0
VERTEX
  5
290
330
28B
100
AcDbEntity
  8
Layer 1
 62
    40
370
    13
100
AcDbVertex
100
AcDb2dVertex
 10
297.0877089275489
 20
538.8450659586883
 30
0.0
  0
VERTEX
  5
291
330
28B
100
AcDbEntity
  8
Layer 1
 62
    40
370
    13
100
AcDbVertex
100
AcDb2dVertex
 10
297.7033044270694
 20
539.3558874917638
 30
0.0
  0
VERTEX
  5
292
330
28B
100
AcDbEntity
  8
Layer 1
 62
    40
370
    13
100
AcDbVertex
100
AcDb2dVertex
 10
298.1608561712042
 20
540.0801326901504
 30
0.0
  0
VERTEX
  5
293
330
28B
100
AcDbEntity
  8
Layer 1
 62
    40
370
    13
100
AcDbVertex
100
AcDb2dVertex
 10
298.4424065997363
 20
540.9895948345628
 30
0.0
  0
VERTEX
  5
294
330
28B
100
AcDbEntity
  8
Layer 1
 62
    40
370
    13
100
AcDbVertex
100
AcDb2dVertex
 10
298.5376204262099
 20
542.0496937790678
 30
0.0
  0
VERTEX
  5
295
330
28B
100
AcDbEntity
  8
Layer 1
 62
    40
370
    13
100
AcDbVertex
100
AcDb2dVertex
 10
298.4424065997363
 20
543.2198635243265
 30
0.0
  0
VERTEX
  5
296
330
28B
100
AcDbEntity
  8
Layer 1
 62
    40
370
    13
100
AcDbVertex
100
AcDb2dVertex
 10
298.1608561712042
 20
544.45458574624
 30
0.0
  0
VERTEX
  5
297
330
28B
100
AcDbEntity
  8
Layer 1
 62
    40
370
    13
100
AcDbVertex
100
AcDb2dVertex
 10
297.7033044270694
 20
545.7069640825155
 30
0.0
  0
VERTEX
  5
298
330
28B
100
AcDbEntity
  8
Layer 1
 62
    40
370
    13
100
AcDbVertex
100
AcDb2dVertex
 10
297.0877089275489
 20
546.9285949415851
 30
0.0
  0
VERTEX
  5
299
330
28B
100
AcDbEntity
  8
Layer 1
 62
    40
370
    13
100
AcDbVertex
100
AcDb2dVertex
 10
296.33771164041
 20
548.0723235789944
 30
0.0
  0
VERTEX
  5
29A
330
28B
100
AcDbEntity
  8
Layer 1
 62
    40
370
    13
100
AcDbVertex
100
AcDb2dVertex
 10
295.4818637944868
 20
549.0943111546937
 30
0.0
  0
VERTEX
  5
29B
330
28B
100
AcDbEntity
  8
Layer 1
 62
    40
370
    13
100
AcDbVertex
100
AcDb2dVertex
 10
294.5533674975184
 20
549.955800344474
 30
0.0
  0
VERTEX
  5
29C
330
28B
100
AcDbEntity
  8
Layer 1
 62
    40
370
    13
100
AcDbVertex
100
AcDb2dVertex
 10
293.5878364240835
 20
550.6229000214992
 30
0.0
  0
VERTEX
  5
29D
330
28B
100
AcDbEntity
  8
Layer 1
 62
    40
370
    13
100
AcDbVertex
100
AcDb2dVertex
 10
292.6222622869552
 20
551.0705901798074
 30
0.0
  0
VERTEX
  5
29E
330
28B
100
AcDbEntity
  8
Layer 1
 62
    40
370
    13
100
AcDbVertex
100
AcDb2dVertex
 10
291.6937659899868
 20
551.2815592145853
 30
0.0
  0
VERTEX
  5
29F
330
28B
100
AcDbEntity
  8
Layer 1
 62
    40
370
    13
100
AcDbVertex
100
AcDb2dVertex
 10
290.8379181440636
 20
551.2473235782006
 30
0.0
  0
VERTEX
  5
2A0
330
28B
100
AcDbEntity
  8
Layer 1
 62
    40
370
    13
100
AcDbVertex
100
AcDb2dVertex
 10
290.0879208569247
 20
550.9693474362346
 30
0.0
  0
VERTEX
  5
2A1
330
28B
100
AcDbEntity
  8
Layer 1
 62
    40
370
    13
100
AcDbVertex
100
AcDb2dVertex
 10
289.4723253574041
 20
550.4585259031592
 30
0.0
  0
VERTEX
  5
2A2
330
28B
100
AcDbEntity
  8
Layer 1
 62
    40
370
    13
100
AcDbVertex
100
AcDb2dVertex
 10
289.0147736132694
 20
549.734625214321
 30
0.0
  0
VERTEX
  5
2A3
330
28B
100
AcDbEntity
  8
Layer 1
 62
    40
370
    13
100
AcDbVertex
100
AcDb2dVertex
 10
288.7332231847373
 20
548.8247754966666
 30
0.0
  0
VERTEX
  5
2A4
330
28B
100
AcDbEntity
  8
Layer 1
 62
    40
370
    13
100
AcDbVertex
100
AcDb2dVertex
 10
288.6380093582637
 20
547.7646765521616
 30
0.0
  0
VERTEX
  5
2A5
330
28B
100
AcDbEntity
  8
Layer 1
 62
    40
370
    13
100
AcDbVertex
100
AcDb2dVertex
 10
288.7332231847373
 20
546.5945498705964
 30
0.0
  0
VERTEX
  5
2A6
330
28B
100
AcDbEntity
  8
Layer 1
 62
    40
370
    13
100
AcDbVertex
100
AcDb2dVertex
 10
289.0147736132694
 20
545.359827648683
 30
0.0
  0
VERTEX
  5
2A7
330
28B
100
AcDbEntity
  8
Layer 1
 62
    40
370
    13
100
AcDbVertex
100
AcDb2dVertex
 10
289.4723253574041
 20
544.1074493124075
 30
0.0
  0
VERTEX
  5
2A8
330
28B
100
AcDbEntity
  8
Layer 1
 62
    40
370
    13
100
AcDbVertex
100
AcDb2dVertex
 10
290.0879208569247
 20
542.8861198991929
 30
0.0
  0
VERTEX
  5
2A9
330
28B
100
AcDbEntity
  8
Layer 1
 62
    40
370
    13
100
AcDbVertex
100
AcDb2dVertex
 10
290.8379181440636
 20
541.742434325477
 30
0.0
  0
VERTEX
  5
2AA
330
28B
100
AcDbEntity
  8
Layer 1
 62
    40
370
    13
100
AcDbVertex
100
AcDb2dVertex
 10
291.6937659899868
 20
540.7200591765356
 30
0.0
  0
VERTEX
  5
2AB
330
28B
100
AcDbEntity
  8
Layer 1
 62
    40
370
    13
100
AcDbVertex
100
AcDb2dVertex
 10
292.6222622869552
 20
539.8586130504489
 30
0.0
  0
VERTEX
  5
2AC
330
28B
100
AcDbEntity
  8
Layer 1
 62
    40
370
    13
100
AcDbVertex
100
AcDb2dVertex
 10
293.5878364240835
 20
539.1915133734238
 30
0.0
  0
SEQEND
  5
2AD
330
28B
100
AcDbEntity
  8
Layer 1
 62
    40
370
    13
  0
ENDBLK
  5
1B5
330
1B2
100
AcDbEntity
  8
0
100
AcDbBlockEnd
  0
BLOCK
  5
2B0
330
2AE
100
AcDbEntity
  8
0
100
AcDbBlockBegin
  2
block 8
 70
     0
 10
0.0
 20
0.0
 30
0.0
  3
block 8
  1

  0
POLYLINE
  5
2B2
330
2AE
100
AcDbEntity
  8
Layer 1
370
     0
100
AcDb2dPolyline
 66
     1
 10
0.0
 20
0.0
 30
0.0
  0
VERTEX
  5
2B3
330
2B2
100
AcDbEntity
  8
Layer 1
370
     0
100
AcDbVertex
100
AcDb2dVertex
 10
308.4306707275555
 20
400.2460755042565
 30
0.0
  0
VERTEX
  5
2B4
330
2B2
100
AcDbEntity
  8
Layer 1
370
     0
100
AcDbVertex
100
AcDb2dVertex
 10
308.4306707275555
 20
420.8878844471148
 30
0.0
  0
VERTEX
  5
2B5
330
2B2
100
AcDbEntity
  8
Layer 1
370
     0
100
AcDbVertex
100
AcDb2dVertex
 10
310.4068636252797
 20
420.8878844471148
 30
0.0
  0
VERTEX
  5
2B6
330
2B2
100
AcDbEntity
  8
Layer 1
370
     0
100
AcDbVertex
100
AcDb2dVertex
 10
310.4068636252797
 20
425.5456535431726
 30
0.0
  0
VERTEX
  5
2B7
330
2B2
100
AcDbEntity
  8
Layer 1
370
     0
100
AcDbVertex
100
AcDb2dVertex
 10
305.7490945292219
 20
425.5456535431726
 30
0.0
  0
VERTEX
  5
2B8
330
2B2
100
AcDbEntity
  8
Layer 1
370
     0
100
AcDbVertex
100
AcDb2dVertex
 10
305.7490945292219
 20
420.8878844471148
 30
0.0
  0
VERTEX
  5
2B9
330
2B2
100
AcDbEntity
  8
Layer 1
370
     0
100
AcDbVertex
100
AcDb2dVertex
 10
307.7251151721763
 20
420.8878844471148
 30
0.0
  0
VERTEX
  5
2BA
330
2B2
100
AcDbEntity
  8
Layer 1
370
     0
100
AcDbVertex
100
AcDb2dVertex
 10
307.7251151721763
 20
399.5405199488773
 30
0.0
  0
VERTEX
  5
2BB
330
2B2
100
AcDbEntity
  8
Layer 1
370
     0
100
AcDbVertex
100
AcDb2dVertex
 10
406.7805676213692
 20
399.5405199488773
 30
0.0
  0
VERTEX
  5
2BC
330
2B2
100
AcDbEntity
  8
Layer 1
370
     0
100
AcDbVertex
100
AcDb2dVertex
 10
406.7805676213692
 20
400.2460755042565
 30
0.0
  0
VERTEX
  5
2BD
330
2B2
100
AcDbEntity
  8
Layer 1
370
     0
100
AcDbVertex
100
AcDb2dVertex
 10
308.4306707275555
 20
400.2460755042565
 30
0.0
  0
SEQEND
  5
2BF
330
2B2
100
AcDbEntity
  8
Layer 1
370
     0
  0
HATCH
  5
2BE
330
2AE
100
AcDbEntity
  8
Layer 1
 62
     7
100
AcDbHatch
 10
0.0
 20
0.0
 30
0.0
210
0.0
220
0.0
230
1.0
  2
SOLID
 70
     1
 71
     0
 91
        1
 92
        1
 93
       10
 72
     1
 10
308.4306707275555
 20
400.2460755042565
 11
308.4306707275555
 21
420.8878844471148
 72
     1
 10
308.4306707275555
 20
420.8878844471148
 11
310.4068636252797
 21
420.8878844471148
 72
     1
 10
310.4068636252797
 20
420.8878844471148
 11
310.4068636252797
 21
425.5456535431726
 72
     1
 10
310.4068636252797
 20
425.5456535431726
 11
305.7490945292219
 21
425.5456535431726
 72
     1
 10
305.7490945292219
 20
425.5456535431726
 11
305.7490945292219
 21
420.8878844471148
 72
     1
 10
305.7490945292219
 20
420.8878844471148
 11
307.7251151721763
 21
420.8878844471148
 72
     1
 10
307.7251151721763
 20
420.8878844471148
 11
307.7251151721763
 21
399.5405199488773
 72
     1
 10
307.7251151721763
 20
399.5405199488773
 11
406.7805676213692
 21
399.5405199488773
 72
     1
 10
406.7805676213692
 20
399.5405199488773
 11
406.7805676213692
 21
400.2460755042565
 72
     1
 10
406.7805676213692
 20
400.2460755042565
 11
308.4306707275555
 21
400.2460755042565
 97
        0
 75
     2
 76
     1
 98
        0
  0
INSERT
  5
2C1
330
2AE
100
AcDbEntity
  8
Layer 1
100
AcDbBlockReference
  2
block 9
 10
0.0
 20
0.0
 30
0.0
  0
ENDBLK
  5
2B1
330
2AE
100
AcDbEntity
  8
0
100
AcDbBlockEnd
  0
BLOCK
  5
2C2
330
2C0
100
AcDbEntity
  8
0
100
AcDbBlockBegin
  2
block 9
 70
     0
 10
0.0
 20
0.0
 30
0.0
  3
block 9
  1

  0
SPLINE
  5
2C4
330
2C0
100
AcDbEntity
  8
Layer 1
370
     0
100
AcDbSpline
210
0.0
220
0.0
230
1.0
 70
    11
 71
     3
 72
    26
 73
    22
 74
     0
 42
0.0000000001
 43
0.0000000001
 12
1.0
 22
0.0
 32
0.0
 13
1.0
 23
0.0
 33
0.0
 40
0.0
 40
0.0
 40
0.0
 40
0.0
 40
1.0
 40
1.0
 40
1.0
 40
2.0
 40
2.0
 40
2.0
 40
3.0
 40
3.0
 40
3.0
 40
4.0
 40
4.0
 40
4.0
 40
5.0
 40
5.0
 40
5.0
 40
6.0
 40
6.0
 40
6.0
 40
7.0
 40
7.0
 40
7.0
 40
7.0
 10
412.5260686902713
 20
402.779549052951
 30
0.0
 10
413.7115260467457
 20
402.779549052951
 30
0.0
 10
414.397444557859
 20
402.1105115097154
 30
0.0
 10
414.397444557859
 20
401.0859401124022
 30
0.0
 10
414.397444557859
 20
400.4169025691666
 30
0.0
 10
413.9568168452955
 20
399.9935003340294
 30
0.0
 10
413.6522704043995
 20
399.8412271135814
 30
0.0
 10
414.024685226355
 20
399.6717284157071
 30
0.0
 10
414.4904621359607
 20
399.2907008550384
 30
0.0
 10
414.4904621359607
 20
398.4866155687811
 30
0.0
 10
414.4904621359607
 20
397.360413854653
 30
0.0
 10
413.7115260467457
 20
396.7506319537637
 30
0.0
 10
412.6359672362507
 20
396.7506319537637
 30
0.0
 10
412.6359672362507
 20
396.7506319537637
 30
0.0
 10
410.1127793028538
 20
396.7506319537637
 30
0.0
 10
410.1127793028538
 20
396.7506319537637
 30
0.0
 10
410.1127793028538
 20
396.7506319537637
 30
0.0
 10
410.1127793028538
 20
402.779549052951
 30
0.0
 10
410.1127793028538
 20
402.779549052951
 30
0.0
 10
410.1127793028538
 20
402.779549052951
 30
0.0
 10
412.5260686902713
 20
402.779549052951
 30
0.0
 10
412.5260686902713
 20
402.779549052951
 30
0.0
  0
SPLINE
  5
2C5
330
2C0
100
AcDbEntity
  8
Layer 1
370
     0
100
AcDbSpline
210
0.0
220
0.0
230
1.0
 70
    11
 71
     3
 72
    20
 73
    16
 74
     0
 42
0.0000000001
 43
0.0000000001
 12
1.0
 22
0.0
 32
0.0
 13
1.0
 23
0.0
 33
0.0
 40
0.0
 40
0.0
 40
0.0
 40
0.0
 40
1.0
 40
1.0
 40
1.0
 40
2.0
 40
2.0
 40
2.0
 40
3.0
 40
3.0
 40
3.0
 40
4.0
 40
4.0
 40
4.0
 40
5.0
 40
5.0
 40
5.0
 40
5.0
 10
411.2896239206151
 20
401.7294839490468
 30
0.0
 10
411.2896239206151
 20
401.7294839490468
 30
0.0
 10
411.2896239206151
 20
400.332497729778
 30
0.0
 10
411.2896239206151
 20
400.332497729778
 30
0.0
 10
411.2896239206151
 20
400.332497729778
 30
0.0
 10
412.4499320800472
 20
400.332497729778
 30
0.0
 10
412.4499320800472
 20
400.332497729778
 30
0.0
 10
412.9494709254085
 20
400.332497729778
 30
0.0
 10
413.2202554305491
 20
400.6118949736318
 30
0.0
 10
413.2202554305491
 20
401.035297208769
 30
0.0
 10
413.2202554305491
 20
401.450086705193
 30
0.0
 10
412.9494709254085
 20
401.7294839490468
 30
0.0
 10
412.4499320800472
 20
401.7294839490468
 30
0.0
 10
412.4499320800472
 20
401.7294839490468
 30
0.0
 10
411.2896239206151
 20
401.7294839490468
 30
0.0
 10
411.2896239206151
 20
401.7294839490468
 30
0.0
  0
SPLINE
  5
2C6
330
2C0
100
AcDbEntity
  8
Layer 1
370
     0
100
AcDbSpline
210
0.0
220
0.0
230
1.0
 70
    11
 71
     3
 72
    20
 73
    16
 74
     0
 42
0.0000000001
 43
0.0000000001
 12
1.0
 22
0.0
 32
0.0
 13
1.0
 23
0.0
 33
0.0
 40
0.0
 40
0.0
 40
0.0
 40
0.0
 40
1.0
 40
1.0
 40
1.0
 40
2.0
 40
2.0
 40
2.0
 40
3.0
 40
3.0
 40
3.0
 40
4.0
 40
4.0
 40
4.0
 40
5.0
 40
5.0
 40
5.0
 40
5.0
 10
411.2896239206151
 20
399.2824326258739
 30
0.0
 10
411.2896239206151
 20
399.2824326258739
 30
0.0
 10
411.2896239206151
 20
397.8006970576679
 30
0.0
 10
411.2896239206151
 20
397.8006970576679
 30
0.0
 10
411.2896239206151
 20
397.8006970576679
 30
0.0
 10
412.5260686902713
 20
397.8006970576679
 30
0.0
 10
412.5260686902713
 20
397.8006970576679
 30
0.0
 10
413.0511012422234
 20
397.8006970576679
 30
0.0
 10
413.3136175181994
 20
398.1224689759902
 30
0.0
 10
413.3136175181994
 20
398.5458712111275
 30
0.0
 10
413.3136175181994
 20
398.9606607075515
 30
0.0
 10
413.0511012422234
 20
399.2824326258739
 30
0.0
 10
412.5260686902713
 20
399.2824326258739
 30
0.0
 10
412.5260686902713
 20
399.2824326258739
 30
0.0
 10
411.2896239206151
 20
399.2824326258739
 30
0.0
 10
411.2896239206151
 20
399.2824326258739
 30
0.0
  0
HATCH
  5
2C7
330
2C0
100
AcDbEntity
  8
Layer 1
 62
     7
100
AcDbHatch
 10
0.0
 20
0.0
 30
0.0
210
0.0
220
0.0
230
1.0
  2
SOLID
 70
     1
 71
     0
 91
        3
 92
        1
 93
        1
 72
     4
 94
        3
 73
     0
 74
     1
 95
       26
 96
       22
 40
0.0
 40
0.0
 40
0.0
 40
0.0
 40
1.0
 40
1.0
 40
1.0
 40
2.0
 40
2.0
 40
2.0
 40
3.0
 40
3.0
 40
3.0
 40
4.0
 40
4.0
 40
4.0
 40
5.0
 40
5.0
 40
5.0
 40
6.0
 40
6.0
 40
6.0
 40
7.0
 40
7.0
 40
7.0
 40
7.0
 10
412.5260686902713
 20
402.779549052951
 10
413.7115260467457
 20
402.779549052951
 10
414.397444557859
 20
402.1105115097154
 10
414.397444557859
 20
401.0859401124022
 10
414.397444557859
 20
400.4169025691666
 10
413.9568168452955
 20
399.9935003340294
 10
413.6522704043995
 20
399.8412271135814
 10
414.024685226355
 20
399.6717284157071
 10
414.4904621359607
 20
399.2907008550384
 10
414.4904621359607
 20
398.4866155687811
 10
414.4904621359607
 20
397.360413854653
 10
413.7115260467457
 20
396.7506319537637
 10
412.6359672362507
 20
396.7506319537637
 10
412.6359672362507
 20
396.7506319537637
 10
410.1127793028538
 20
396.7506319537637
 10
410.1127793028538
 20
396.7506319537637
 10
410.1127793028538
 20
396.7506319537637
 10
410.1127793028538
 20
402.779549052951
 10
410.1127793028538
 20
402.779549052951
 10
410.1127793028538
 20
402.779549052951
 10
412.5260686902713
 20
402.779549052951
 10
412.5260686902713
 20
402.779549052951
 97
        0
 92
        1
 93
        1
 72
     4
 94
        3
 73
     0
 74
     1
 95
       20
 96
       16
 40
0.0
 40
0.0
 40
0.0
 40
0.0
 40
1.0
 40
1.0
 40
1.0
 40
2.0
 40
2.0
 40
2.0
 40
3.0
 40
3.0
 40
3.0
 40
4.0
 40
4.0
 40
4.0
 40
5.0
 40
5.0
 40
5.0
 40
5.0
 10
411.2896239206151
 20
401.7294839490468
 10
411.2896239206151
 20
401.7294839490468
 10
411.2896239206151
 20
400.332497729778
 10
411.2896239206151
 20
400.332497729778
 10
411.2896239206151
 20
400.332497729778
 10
412.4499320800472
 20
400.332497729778
 10
412.4499320800472
 20
400.332497729778
 10
412.9494709254085
 20
400.332497729778
 10
413.2202554305491
 20
400.6118949736318
 10
413.2202554305491
 20
401.035297208769
 10
413.2202554305491
 20
401.450086705193
 10
412.9494709254085
 20
401.7294839490468
 10
412.4499320800472
 20
401.7294839490468
 10
412.4499320800472
 20
401.7294839490468
 10
411.2896239206151
 20
401.7294839490468
 10
411.2896239206151
 20
401.7294839490468
 97
        0
 92
        1
 93
        1
 72
     4
 94
        3
 73
     0
 74
     1
 95
       20
 96
       16
 40
0.0
 40
0.0
 40
0.0
 40
0.0
 40
1.0
 40
1.0
 40
1.0
 40
2.0
 40
2.0
 40
2.0
 40
3.0
 40
3.0
 40
3.0
 40
4.0
 40
4.0
 40
4.0
 40
5.0
 40
5.0
 40
5.0
 40
5.0
 10
411.2896239206151
 20
399.2824326258739
 10
411.2896239206151
 20
399.2824326258739
 10
411.2896239206151
 20
397.8006970576679
 10
411.2896239206151
 20
397.8006970576679
 10
411.2896239206151
 20
397.8006970576679
 10
412.5260686902713
 20
397.8006970576679
 10
412.5260686902713
 20
397.8006970576679
 10
413.0511012422234
 20
397.8006970576679
 10
413.3136175181994
 20
398.1224689759902
 10
413.3136175181994
 20
398.5458712111275
 10
413.3136175181994
 20
398.9606607075515
 10
413.0511012422234
 20
399.2824326258739
 10
412.5260686902713
 20
399.2824326258739
 10
412.5260686902713
 20
399.2824326258739
 10
411.2896239206151
 20
399.2824326258739
 10
411.2896239206151
 20
399.2824326258739
 97
        0
 75
     2
 76
     1
 98
        0
  0
SPLINE
  5
2C8
330
2C0
100
AcDbEntity
  8
Layer 1
370
     0
100
AcDbSpline
210
0.0
220
0.0
230
1.0
 70
    11
 71
     3
 72
    29
 73
    25
 74
     0
 42
0.0000000001
 43
0.0000000001
 12
1.0
 22
0.0
 32
0.0
 13
1.0
 23
0.0
 33
0.0
 40
0.0
 40
0.0
 40
0.0
 40
0.0
 40
1.0
 40
1.0
 40
1.0
 40
2.0
 40
2.0
 40
2.0
 40
3.0
 40
3.0
 40
3.0
 40
4.0
 40
4.0
 40
4.0
 40
5.0
 40
5.0
 40
5.0
 40
6.0
 40
6.0
 40
6.0
 40
7.0
 40
7.0
 40
7.0
 40
8.0
 40
8.0
 40
8.0
 40
8.0
 10
419.2825899559433
 20
402.1952608586526
 30
0.0
 10
419.8837591181194
 20
401.6023599256411
 30
0.0
 10
419.8920273472839
 20
400.9164414145279
 30
0.0
 10
419.8920273472839
 20
399.7650905033574
 30
0.0
 10
419.8920273472839
 20
398.6133950826384
 30
0.0
 10
419.8837591181194
 20
397.9274765715251
 30
0.0
 10
419.2825899559433
 20
397.3349201480621
 30
0.0
 10
418.8674559499706
 20
396.9283988808027
 30
0.0
 10
418.3596488754448
 20
396.6999890501306
 30
0.0
 10
417.6651176256184
 20
396.6999890501306
 30
0.0
 10
416.9709308853406
 20
396.6999890501306
 30
0.0
 10
416.4627793012663
 20
396.9283988808027
 30
0.0
 10
416.0479898048422
 20
397.3349201480621
 30
0.0
 10
415.4468206426661
 20
397.9360893102382
 30
0.0
 10
415.438207903953
 20
398.6133950826384
 30
0.0
 10
415.438207903953
 20
399.7650905033574
 30
0.0
 10
415.438207903953
 20
400.9164414145279
 30
0.0
 10
415.4468206426661
 20
401.5940916964765
 30
0.0
 10
416.0479898048422
 20
402.1952608586526
 30
0.0
 10
416.4627793012663
 20
402.6014376163636
 30
0.0
 10
416.9709308853406
 20
402.8301919565841
 30
0.0
 10
417.6651176256184
 20
402.8301919565841
 30
0.0
 10
418.3596488754448
 20
402.8301919565841
 30
0.0
 10
418.8674559499706
 20
402.6014376163636
 30
0.0
 10
419.2825899559433
 20
402.1952608586526
 30
0.0
  0
SPLINE
  5
2C9
330
2C0
100
AcDbEntity
  8
Layer 1
370
     0
100
AcDbSpline
210
0.0
220
0.0
230
1.0
 70
    11
 71
     3
 72
    29
 73
    25
 74
     0
 42
0.0000000001
 43
0.0000000001
 12
1.0
 22
0.0
 32
0.0
 13
1.0
 23
0.0
 33
0.0
 40
0.0
 40
0.0
 40
0.0
 40
0.0
 40
1.0
 40
1.0
 40
1.0
 40
2.0
 40
2.0
 40
2.0
 40
3.0
 40
3.0
 40
3.0
 40
4.0
 40
4.0
 40
4.0
 40
5.0
 40
5.0
 40
5.0
 40
6.0
 40
6.0
 40
6.0
 40
7.0
 40
7.0
 40
7.0
 40
8.0
 40
8.0
 40
8.0
 40
8.0
 10
416.9116752429943
 20
401.4583549343577
 30
0.0
 10
416.6829209027737
 20
401.2044513970947
 30
0.0
 10
416.6150525217143
 20
400.9164414145279
 30
0.0
 10
416.6150525217143
 20
399.7650905033574
 30
0.0
 10
416.6150525217143
 20
398.6133950826384
 30
0.0
 10
416.6829209027737
 20
398.3339978387846
 30
0.0
 10
416.9116752429943
 20
398.0800943015217
 30
0.0
 10
417.0808294313201
 20
397.8851018970565
 30
0.0
 10
417.3433457072961
 20
397.7497096444862
 30
0.0
 10
417.6651176256184
 20
397.7497096444862
 30
0.0
 10
417.9868895439408
 20
397.7497096444862
 30
0.0
 10
418.2494058199168
 20
397.8851018970565
 30
0.0
 10
418.4189045177911
 20
398.0800943015217
 30
0.0
 10
418.6473143484632
 20
398.3339978387846
 30
0.0
 10
418.7151827295226
 20
398.6133950826384
 30
0.0
 10
418.7151827295226
 20
399.7650905033574
 30
0.0
 10
418.7151827295226
 20
400.9164414145279
 30
0.0
 10
418.6473143484632
 20
401.2044513970947
 30
0.0
 10
418.4189045177911
 20
401.4583549343577
 30
0.0
 10
418.2494058199168
 20
401.6533473388228
 30
0.0
 10
417.9868895439408
 20
401.78012685268
 30
0.0
 10
417.6651176256184
 20
401.78012685268
 30
0.0
 10
417.3433457072961
 20
401.78012685268
 30
0.0
 10
417.0808294313201
 20
401.6533473388228
 30
0.0
 10
416.9116752429943
 20
401.4583549343577
 30
0.0
  0
HATCH
  5
2CA
330
2C0
100
AcDbEntity
  8
Layer 1
 62
     7
100
AcDbHatch
 10
0.0
 20
0.0
 30
0.0
210
0.0
220
0.0
230
1.0
  2
SOLID
 70
     1
 71
     0
 91
        2
 92
        1
 93
        1
 72
     4
 94
        3
 73
     0
 74
     1
 95
       29
 96
       25
 40
0.0
 40
0.0
 40
0.0
 40
0.0
 40
1.0
 40
1.0
 40
1.0
 40
2.0
 40
2.0
 40
2.0
 40
3.0
 40
3.0
 40
3.0
 40
4.0
 40
4.0
 40
4.0
 40
5.0
 40
5.0
 40
5.0
 40
6.0
 40
6.0
 40
6.0
 40
7.0
 40
7.0
 40
7.0
 40
8.0
 40
8.0
 40
8.0
 40
8.0
 10
419.2825899559433
 20
402.1952608586526
 10
419.8837591181194
 20
401.6023599256411
 10
419.8920273472839
 20
400.9164414145279
 10
419.8920273472839
 20
399.7650905033574
 10
419.8920273472839
 20
398.6133950826384
 10
419.8837591181194
 20
397.9274765715251
 10
419.2825899559433
 20
397.3349201480621
 10
418.8674559499706
 20
396.9283988808027
 10
418.3596488754448
 20
396.6999890501306
 10
417.6651176256184
 20
396.6999890501306
 10
416.9709308853406
 20
396.6999890501306
 10
416.4627793012663
 20
396.9283988808027
 10
416.0479898048422
 20
397.3349201480621
 10
415.4468206426661
 20
397.9360893102382
 10
415.438207903953
 20
398.6133950826384
 10
415.438207903953
 20
399.7650905033574
 10
415.438207903953
 20
400.9164414145279
 10
415.4468206426661
 20
401.5940916964765
 10
416.0479898048422
 20
402.1952608586526
 10
416.4627793012663
 20
402.6014376163636
 10
416.9709308853406
 20
402.8301919565841
 10
417.6651176256184
 20
402.8301919565841
 10
418.3596488754448
 20
402.8301919565841
 10
418.8674559499706
 20
402.6014376163636
 10
419.2825899559433
 20
402.1952608586526
 97
        0
 92
        1
 93
        1
 72
     4
 94
        3
 73
     0
 74
     1
 95
       29
 96
       25
 40
0.0
 40
0.0
 40
0.0
 40
0.0
 40
1.0
 40
1.0
 40
1.0
 40
2.0
 40
2.0
 40
2.0
 40
3.0
 40
3.0
 40
3.0
 40
4.0
 40
4.0
 40
4.0
 40
5.0
 40
5.0
 40
5.0
 40
6.0
 40
6.0
 40
6.0
 40
7.0
 40
7.0
 40
7.0
 40
8.0
 40
8.0
 40
8.0
 40
8.0
 10
416.9116752429943
 20
401.4583549343577
 10
416.6829209027737
 20
401.2044513970947
 10
416.6150525217143
 20
400.9164414145279
 10
416.6150525217143
 20
399.7650905033574
 10
416.6150525217143
 20
398.6133950826384
 10
416.6829209027737
 20
398.3339978387846
 10
416.9116752429943
 20
398.0800943015217
 10
417.0808294313201
 20
397.8851018970565
 10
417.3433457072961
 20
397.7497096444862
 10
417.6651176256184
 20
397.7497096444862
 10
417.9868895439408
 20
397.7497096444862
 10
418.2494058199168
 20
397.8851018970565
 10
418.4189045177911
 20
398.0800943015217
 10
418.6473143484632
 20
398.3339978387846
 10
418.7151827295226
 20
398.6133950826384
 10
418.7151827295226
 20
399.7650905033574
 10
418.7151827295226
 20
400.9164414145279
 10
418.6473143484632
 20
401.2044513970947
 10
418.4189045177911
 20
401.4583549343577
 10
418.2494058199168
 20
401.6533473388228
 10
417.9868895439408
 20
401.78012685268
 10
417.6651176256184
 20
401.78012685268
 10
417.3433457072961
 20
401.78012685268
 10
417.0808294313201
 20
401.6533473388228
 10
416.9116752429943
 20
401.4583549343577
 97
        0
 75
     2
 76
     1
 98
        0
  0
POLYLINE
  5
2CB
330
2C0
100
AcDbEntity
  8
Layer 1
370
     0
100
AcDb2dPolyline
 66
     1
 10
0.0
 20
0.0
 30
0.0
  0
VERTEX
  5
2CC
330
2CB
100
AcDbEntity
  8
Layer 1
370
     0
100
AcDbVertex
100
AcDb2dVertex
 10
426.1827717033502
 20
396.7506319537637
 30
0.0
  0
VERTEX
  5
2CD
330
2CB
100
AcDbEntity
  8
Layer 1
370
     0
100
AcDbVertex
100
AcDb2dVertex
 10
425.1923067513408
 20
396.7506319537637
 30
0.0
  0
VERTEX
  5
2CE
330
2CB
100
AcDbEntity
  8
Layer 1
370
     0
100
AcDbVertex
100
AcDb2dVertex
 10
424.0829860050904
 20
400.4000216012889
 30
0.0
  0
VERTEX
  5
2CF
330
2CB
100
AcDbEntity
  8
Layer 1
370
     0
100
AcDbVertex
100
AcDb2dVertex
 10
422.9822779975531
 20
396.7506319537637
 30
0.0
  0
VERTEX
  5
2D0
330
2CB
100
AcDbEntity
  8
Layer 1
370
     0
100
AcDbVertex
100
AcDb2dVertex
 10
422.0000812747084
 20
396.7506319537637
 30
0.0
  0
VERTEX
  5
2D1
330
2CB
100
AcDbEntity
  8
Layer 1
370
     0
100
AcDbVertex
100
AcDb2dVertex
 10
420.3826089443835
 20
402.779549052951
 30
0.0
  0
VERTEX
  5
2D2
330
2CB
100
AcDbEntity
  8
Layer 1
370
     0
100
AcDbVertex
100
AcDb2dVertex
 10
421.6104409753266
 20
402.779549052951
 30
0.0
  0
VERTEX
  5
2D3
330
2CB
100
AcDbEntity
  8
Layer 1
370
     0
100
AcDbVertex
100
AcDb2dVertex
 10
422.5419947945381
 20
398.9861544141424
 30
0.0
  0
VERTEX
  5
2D4
330
2CB
100
AcDbEntity
  8
Layer 1
370
     0
100
AcDbVertex
100
AcDb2dVertex
 10
423.6513155407886
 20
402.779549052951
 30
0.0
  0
VERTEX
  5
2D5
330
2CB
100
AcDbEntity
  8
Layer 1
370
     0
100
AcDbVertex
100
AcDb2dVertex
 10
424.5232692081053
 20
402.779549052951
 30
0.0
  0
VERTEX
  5
2D6
330
2CB
100
AcDbEntity
  8
Layer 1
370
     0
100
AcDbVertex
100
AcDb2dVertex
 10
425.6325899543558
 20
398.9861544141424
 30
0.0
  0
VERTEX
  5
2D7
330
2CB
100
AcDbEntity
  8
Layer 1
370
     0
100
AcDbVertex
100
AcDb2dVertex
 10
426.5637992640188
 20
402.779549052951
 30
0.0
  0
VERTEX
  5
2D8
330
2CB
100
AcDbEntity
  8
Layer 1
370
     0
100
AcDbVertex
100
AcDb2dVertex
 10
427.7916312949619
 20
402.779549052951
 30
0.0
  0
VERTEX
  5
2D9
330
2CB
100
AcDbEntity
  8
Layer 1
370
     0
100
AcDbVertex
100
AcDb2dVertex
 10
426.1827717033502
 20
396.7506319537637
 30
0.0
  0
SEQEND
  5
2DA
330
2CB
100
AcDbEntity
  8
Layer 1
370
     0
  0
HATCH
  5
2DB
330
2C0
100
AcDbEntity
  8
Layer 1
 62
     7
100
AcDbHatch
 10
0.0
 20
0.0
 30
0.0
210
0.0
220
0.0
230
1.0
  2
SOLID
 70
     1
 71
     0
 91
        1
 92
        1
 93
       13
 72
     1
 10
426.1827717033502
 20
396.7506319537637
 11
425.1923067513408
 21
396.7506319537637
 72
     1
 10
425.1923067513408
 20
396.7506319537637
 11
424.0829860050904
 21
400.4000216012889
 72
     1
 10
424.0829860050904
 20
400.4000216012889
 11
422.9822779975531
 21
396.7506319537637
 72
     1
 10
422.9822779975531
 20
396.7506319537637
 11
422.0000812747084
 21
396.7506319537637
 72
     1
 10
422.0000812747084
 20
396.7506319537637
 11
420.3826089443835
 21
402.779549052951
 72
     1
 10
420.3826089443835
 20
402.779549052951
 11
421.6104409753266
 21
402.779549052951
 72
     1
 10
421.6104409753266
 20
402.779549052951
 11
422.5419947945381
 21
398.9861544141424
 72
     1
 10
422.5419947945381
 20
398.9861544141424
 11
423.6513155407886
 21
402.779549052951
 72
     1
 10
423.6513155407886
 20
402.779549052951
 11
424.5232692081053
 21
402.779549052951
 72
     1
 10
424.5232692081053
 20
402.779549052951
 11
425.6325899543558
 21
398.9861544141424
 72
     1
 10
425.6325899543558
 20
398.9861544141424
 11
426.5637992640188
 21
402.779549052951
 72
     1
 10
426.5637992640188
 20
402.779549052951
 11
427.7916312949619
 21
402.779549052951
 72
     1
 10
427.7916312949619
 20
402.779549052951
 11
426.1827717033502
 21
396.7506319537637
 97
        0
 75
     2
 76
     1
 98
        0
  0
POLYLINE
  5
2DC
330
2C0
100
AcDbEntity
  8
Layer 1
370
     0
100
AcDb2dPolyline
 66
     1
 10
0.0
 20
0.0
 30
0.0
  0
VERTEX
  5
2DD
330
2DC
100
AcDbEntity
  8
Layer 1
370
     0
100
AcDbVertex
100
AcDb2dVertex
 10
434.006239040804
 20
396.7506319537637
 30
0.0
  0
VERTEX
  5
2DE
330
2DC
100
AcDbEntity
  8
Layer 1
370
     0
100
AcDbVertex
100
AcDb2dVertex
 10
432.8293944230427
 20
396.7506319537637
 30
0.0
  0
VERTEX
  5
2DF
330
2DC
100
AcDbEntity
  8
Layer 1
370
     0
100
AcDbVertex
100
AcDb2dVertex
 10
432.8293944230427
 20
400.2560166100055
 30
0.0
  0
VERTEX
  5
2E0
330
2DC
100
AcDbEntity
  8
Layer 1
370
     0
100
AcDbVertex
100
AcDb2dVertex
 10
431.6776990023237
 20
398.1138562372771
 30
0.0
  0
VERTEX
  5
2E1
330
2DC
100
AcDbEntity
  8
Layer 1
370
     0
100
AcDbVertex
100
AcDb2dVertex
 10
430.8818819452309
 20
398.1138562372771
 30
0.0
  0
VERTEX
  5
2E2
330
2DC
100
AcDbEntity
  8
Layer 1
370
     0
100
AcDbVertex
100
AcDb2dVertex
 10
429.7215737857988
 20
400.2560166100055
 30
0.0
  0
VERTEX
  5
2E3
330
2DC
100
AcDbEntity
  8
Layer 1
370
     0
100
AcDbVertex
100
AcDb2dVertex
 10
429.7215737857988
 20
396.7506319537637
 30
0.0
  0
VERTEX
  5
2E4
330
2DC
100
AcDbEntity
  8
Layer 1
370
     0
100
AcDbVertex
100
AcDb2dVertex
 10
428.5447291680375
 20
396.7506319537637
 30
0.0
  0
VERTEX
  5
2E5
330
2DC
100
AcDbEntity
  8
Layer 1
370
     0
100
AcDbVertex
100
AcDb2dVertex
 10
428.5447291680375
 20
402.779549052951
 30
0.0
  0
VERTEX
  5
2E6
330
2DC
100
AcDbEntity
  8
Layer 1
370
     0
100
AcDbVertex
100
AcDb2dVertex
 10
429.7046928179211
 20
402.779549052951
 30
0.0
  0
VERTEX
  5
2E7
330
2DC
100
AcDbEntity
  8
Layer 1
370
     0
100
AcDbVertex
100
AcDb2dVertex
 10
431.2797904737773
 20
399.6548474478294
 30
0.0
  0
VERTEX
  5
2E8
330
2DC
100
AcDbEntity
  8
Layer 1
370
     0
100
AcDbVertex
100
AcDb2dVertex
 10
432.8462753909204
 20
402.779549052951
 30
0.0
  0
VERTEX
  5
2E9
330
2DC
100
AcDbEntity
  8
Layer 1
370
     0
100
AcDbVertex
100
AcDb2dVertex
 10
434.006239040804
 20
402.779549052951
 30
0.0
  0
VERTEX
  5
2EA
330
2DC
100
AcDbEntity
  8
Layer 1
370
     0
100
AcDbVertex
100
AcDb2dVertex
 10
434.006239040804
 20
396.7506319537637
 30
0.0
  0
SEQEND
  5
2EB
330
2DC
100
AcDbEntity
  8
Layer 1
370
     0
  0
HATCH
  5
2EC
330
2C0
100
AcDbEntity
  8
Layer 1
 62
     7
100
AcDbHatch
 10
0.0
 20
0.0
 30
0.0
210
0.0
220
0.0
230
1.0
  2
SOLID
 70
     1
 71
     0
 91
        1
 92
        1
 93
       13
 72
     1
 10
434.006239040804
 20
396.7506319537637
 11
432.8293944230427
 21
396.7506319537637
 72
     1
 10
432.8293944230427
 20
396.7506319537637
 11
432.8293944230427
 21
400.2560166100055
 72
     1
 10
432.8293944230427
 20
400.2560166100055
 11
431.6776990023237
 21
398.1138562372771
 72
     1
 10
431.6776990023237
 20
398.1138562372771
 11
430.8818819452309
 21
398.1138562372771
 72
     1
 10
430.8818819452309
 20
398.1138562372771
 11
429.7215737857988
 21
400.2560166100055
 72
     1
 10
429.7215737857988
 20
400.2560166100055
 11
429.7215737857988
 21
396.7506319537637
 72
     1
 10
429.7215737857988
 20
396.7506319537637
 11
428.5447291680375
 21
396.7506319537637
 72
     1
 10
428.5447291680375
 20
396.7506319537637
 11
428.5447291680375
 21
402.779549052951
 72
     1
 10
428.5447291680375
 20
402.779549052951
 11
429.7046928179211
 21
402.779549052951
 72
     1
 10
429.7046928179211
 20
402.779549052951
 11
431.2797904737773
 21
399.6548474478294
 72
     1
 10
431.2797904737773
 20
399.6548474478294
 11
432.8462753909204
 21
402.779549052951
 72
     1
 10
432.8462753909204
 20
402.779549052951
 11
434.006239040804
 21
402.779549052951
 72
     1
 10
434.006239040804
 20
402.779549052951
 11
434.006239040804
 21
396.7506319537637
 97
        0
 75
     2
 76
     1
 98
        0
  0
POLYLINE
  5
2ED
330
2C0
100
AcDbEntity
  8
Layer 1
370
     0
100
AcDb2dPolyline
 66
     1
 10
0.0
 20
0.0
 30
0.0
  0
VERTEX
  5
2EE
330
2ED
100
AcDbEntity
  8
Layer 1
370
     0
100
AcDbVertex
100
AcDb2dVertex
 10
440.0682290566496
 20
396.7506319537637
 30
0.0
  0
VERTEX
  5
2EF
330
2ED
100
AcDbEntity
  8
Layer 1
370
     0
100
AcDbVertex
100
AcDb2dVertex
 10
438.832128796542
 20
396.7506319537637
 30
0.0
  0
VERTEX
  5
2F0
330
2ED
100
AcDbEntity
  8
Layer 1
370
     0
100
AcDbVertex
100
AcDb2dVertex
 10
438.4762504329157
 20
397.8175780255456
 30
0.0
  0
VERTEX
  5
2F1
330
2ED
100
AcDbEntity
  8
Layer 1
370
     0
100
AcDbVertex
100
AcDb2dVertex
 10
436.3427027989005
 20
397.8175780255456
 30
0.0
  0
VERTEX
  5
2F2
330
2ED
100
AcDbEntity
  8
Layer 1
370
     0
100
AcDbVertex
100
AcDb2dVertex
 10
435.9785562061095
 20
396.7506319537637
 30
0.0
  0
VERTEX
  5
2F3
330
2ED
100
AcDbEntity
  8
Layer 1
370
     0
100
AcDbVertex
100
AcDb2dVertex
 10
434.7421114364534
 20
396.7506319537637
 30
0.0
  0
VERTEX
  5
2F4
330
2ED
100
AcDbEntity
  8
Layer 1
370
     0
100
AcDbVertex
100
AcDb2dVertex
 10
436.9438719610765
 20
402.779549052951
 30
0.0
  0
VERTEX
  5
2F5
330
2ED
100
AcDbEntity
  8
Layer 1
370
     0
100
AcDbVertex
100
AcDb2dVertex
 10
437.866813041575
 20
402.779549052951
 30
0.0
  0
VERTEX
  5
2F6
330
2ED
100
AcDbEntity
  8
Layer 1
370
     0
100
AcDbVertex
100
AcDb2dVertex
 10
440.0682290566496
 20
396.7506319537637
 30
0.0
  0
SEQEND
  5
2F7
330
2ED
100
AcDbEntity
  8
Layer 1
370
     0
  0
POLYLINE
  5
2F8
330
2C0
100
AcDbEntity
  8
Layer 1
370
     0
100
AcDb2dPolyline
 66
     1
 10
0.0
 20
0.0
 30
0.0
  0
VERTEX
  5
2F9
330
2F8
100
AcDbEntity
  8
Layer 1
370
     0
100
AcDbVertex
100
AcDb2dVertex
 10
436.6644747172228
 20
398.808042977555
 30
0.0
  0
VERTEX
  5
2FA
330
2F8
100
AcDbEntity
  8
Layer 1
370
     0
100
AcDbVertex
100
AcDb2dVertex
 10
438.1462102854288
 20
398.808042977555
 30
0.0
  0
VERTEX
  5
2FB
330
2F8
100
AcDbEntity
  8
Layer 1
370
     0
100
AcDbVertex
100
AcDb2dVertex
 10
437.4093043611338
 20
400.9929225343004
 30
0.0
  0
VERTEX
  5
2FC
330
2F8
100
AcDbEntity
  8
Layer 1
370
     0
100
AcDbVertex
100
AcDb2dVertex
 10
436.6644747172228
 20
398.808042977555
 30
0.0
  0
SEQEND
  5
2FD
330
2F8
100
AcDbEntity
  8
Layer 1
370
     0
  0
HATCH
  5
2FE
330
2C0
100
AcDbEntity
  8
Layer 1
 62
     7
100
AcDbHatch
 10
0.0
 20
0.0
 30
0.0
210
0.0
220
0.0
230
1.0
  2
SOLID
 70
     1
 71
     0
 91
        2
 92
        1
 93
        8
 72
     1
 10
440.0682290566496
 20
396.7506319537637
 11
438.832128796542
 21
396.7506319537637
 72
     1
 10
438.832128796542
 20
396.7506319537637
 11
438.4762504329157
 21
397.8175780255456
 72
     1
 10
438.4762504329157
 20
397.8175780255456
 11
436.3427027989005
 21
397.8175780255456
 72
     1
 10
436.3427027989005
 20
397.8175780255456
 11
435.9785562061095
 21
396.7506319537637
 72
     1
 10
435.9785562061095
 20
396.7506319537637
 11
434.7421114364534
 21
396.7506319537637
 72
     1
 10
434.7421114364534
 20
396.7506319537637
 11
436.9438719610765
 21
402.779549052951
 72
     1
 10
436.9438719610765
 20
402.779549052951
 11
437.866813041575
 21
402.779549052951
 72
     1
 10
437.866813041575
 20
402.779549052951
 11
440.0682290566496
 21
396.7506319537637
 97
        0
 92
        1
 93
        3
 72
     1
 10
436.6644747172228
 20
398.808042977555
 11
438.1462102854288
 21
398.808042977555
 72
     1
 10
438.1462102854288
 20
398.808042977555
 11
437.4093043611338
 21
400.9929225343004
 72
     1
 10
437.4093043611338
 20
400.9929225343004
 11
436.6644747172228
 21
398.808042977555
 97
        0
 75
     2
 76
     1
 98
        0
  0
SPLINE
  5
2FF
330
2C0
100
AcDbEntity
  8
Layer 1
370
     0
100
AcDbSpline
210
0.0
220
0.0
230
1.0
 70
    11
 71
     3
 72
    47
 73
    43
 74
     0
 42
0.0000000001
 43
0.0000000001
 12
1.0
 22
0.0
 32
0.0
 13
1.0
 23
0.0
 33
0.0
 40
0.0
 40
0.0
 40
0.0
 40
0.0
 40
1.0
 40
1.0
 40
1.0
 40
2.0
 40
2.0
 40
2.0
 40
3.0
 40
3.0
 40
3.0
 40
4.0
 40
4.0
 40
4.0
 40
5.0
 40
5.0
 40
5.0
 40
6.0
 40
6.0
 40
6.0
 40
7.0
 40
7.0
 40
7.0
 40
8.0
 40
8.0
 40
8.0
 40
9.0
 40
9.0
 40
9.0
 40
10.0
 40
10.0
 40
10.0
 40
11.0
 40
11.0
 40
11.0
 40
12.0
 40
12.0
 40
12.0
 40
13.0
 40
13.0
 40
13.0
 40
14.0
 40
14.0
 40
14.0
 40
14.0
 10
444.9533744547339
 20
400.925054153241
 30
0.0
 10
444.9533744547339
 20
400.925054153241
 30
0.0
 10
443.7596488690948
 20
400.925054153241
 30
0.0
 10
443.7596488690948
 20
400.925054153241
 30
0.0
 10
443.6407930748537
 20
401.4163247694376
 30
0.0
 10
443.3276338952445
 20
401.78012685268
 30
0.0
 10
442.7433457009461
 20
401.78012685268
 30
0.0
 10
442.4215737826238
 20
401.78012685268
 30
0.0
 10
442.1590575066477
 20
401.6616155679874
 30
0.0
 10
441.989903318322
 20
401.4669676730708
 30
0.0
 10
441.7697617168145
 20
401.2130641358079
 30
0.0
 10
441.693280597042
 20
400.9164414145279
 30
0.0
 10
441.693280597042
 20
399.7650905033574
 30
0.0
 10
441.693280597042
 20
398.6133950826384
 30
0.0
 10
441.7697617168145
 20
398.3171168709068
 30
0.0
 10
441.989903318322
 20
398.0632133336439
 30
0.0
 10
442.1590575066477
 20
397.8682209291788
 30
0.0
 10
442.4215737826238
 20
397.7497096444862
 30
0.0
 10
442.7433457009461
 20
397.7497096444862
 30
0.0
 10
443.3276338952445
 20
397.7497096444862
 30
0.0
 10
443.6407930748537
 20
398.1138562372771
 30
0.0
 10
443.7596488690948
 20
398.6051268534737
 30
0.0
 10
443.7596488690948
 20
398.6051268534737
 30
0.0
 10
444.9533744547339
 20
398.6051268534737
 30
0.0
 10
444.9533744547339
 20
398.6051268534737
 30
0.0
 10
444.7418455919396
 20
397.3431883772267
 30
0.0
 10
443.8695474150743
 20
396.6999890501306
 30
0.0
 10
442.7433457009461
 20
396.6999890501306
 30
0.0
 10
442.0491589606683
 20
396.6999890501306
 30
0.0
 10
441.5410073765939
 20
396.9283988808027
 30
0.0
 10
441.1262178801699
 20
397.3349201480621
 30
0.0
 10
440.5250487179937
 20
397.9360893102382
 30
0.0
 10
440.5164359792806
 20
398.6133950826384
 30
0.0
 10
440.5164359792806
 20
399.7650905033574
 30
0.0
 10
440.5164359792806
 20
400.9164414145279
 30
0.0
 10
440.5250487179937
 20
401.5940916964765
 30
0.0
 10
441.1262178801699
 20
402.1952608586526
 30
0.0
 10
441.5410073765939
 20
402.6014376163636
 30
0.0
 10
442.0491589606683
 20
402.8301919565841
 30
0.0
 10
442.7433457009461
 20
402.8301919565841
 30
0.0
 10
443.8695474150743
 20
402.8301919565841
 30
0.0
 10
444.7418455919396
 20
402.1866481199395
 30
0.0
 10
444.9533744547339
 20
400.925054153241
 30
0.0
  0
HATCH
  5
300
330
2C0
100
AcDbEntity
  8
Layer 1
 62
     7
100
AcDbHatch
 10
0.0
 20
0.0
 30
0.0
210
0.0
220
0.0
230
1.0
  2
SOLID
 70
     1
 71
     0
 91
        1
 92
        1
 93
        1
 72
     4
 94
        3
 73
     0
 74
     1
 95
       47
 96
       43
 40
0.0
 40
0.0
 40
0.0
 40
0.0
 40
1.0
 40
1.0
 40
1.0
 40
2.0
 40
2.0
 40
2.0
 40
3.0
 40
3.0
 40
3.0
 40
4.0
 40
4.0
 40
4.0
 40
5.0
 40
5.0
 40
5.0
 40
6.0
 40
6.0
 40
6.0
 40
7.0
 40
7.0
 40
7.0
 40
8.0
 40
8.0
 40
8.0
 40
9.0
 40
9.0
 40
9.0
 40
10.0
 40
10.0
 40
10.0
 40
11.0
 40
11.0
 40
11.0
 40
12.0
 40
12.0
 40
12.0
 40
13.0
 40
13.0
 40
13.0
 40
14.0
 40
14.0
 40
14.0
 40
14.0
 10
444.9533744547339
 20
400.925054153241
 10
444.9533744547339
 20
400.925054153241
 10
443.7596488690948
 20
400.925054153241
 10
443.7596488690948
 20
400.925054153241
 10
443.6407930748537
 20
401.4163247694376
 10
443.3276338952445
 20
401.78012685268
 10
442.7433457009461
 20
401.78012685268
 10
442.4215737826238
 20
401.78012685268
 10
442.1590575066477
 20
401.6616155679874
 10
441.989903318322
 20
401.4669676730708
 10
441.7697617168145
 20
401.2130641358079
 10
441.693280597042
 20
400.9164414145279
 10
441.693280597042
 20
399.7650905033574
 10
441.693280597042
 20
398.6133950826384
 10
441.7697617168145
 20
398.3171168709068
 10
441.989903318322
 20
398.0632133336439
 10
442.1590575066477
 20
397.8682209291788
 10
442.4215737826238
 20
397.7497096444862
 10
442.7433457009461
 20
397.7497096444862
 10
443.3276338952445
 20
397.7497096444862
 10
443.6407930748537
 20
398.1138562372771
 10
443.7596488690948
 20
398.6051268534737
 10
443.7596488690948
 20
398.6051268534737
 10
444.9533744547339
 20
398.6051268534737
 10
444.9533744547339
 20
398.6051268534737
 10
444.7418455919396
 20
397.3431883772267
 10
443.8695474150743
 20
396.6999890501306
 10
442.7433457009461
 20
396.6999890501306
 10
442.0491589606683
 20
396.6999890501306
 10
441.5410073765939
 20
396.9283988808027
 10
441.1262178801699
 20
397.3349201480621
 10
440.5250487179937
 20
397.9360893102382
 10
440.5164359792806
 20
398.6133950826384
 10
440.5164359792806
 20
399.7650905033574
 10
440.5164359792806
 20
400.9164414145279
 10
440.5250487179937
 20
401.5940916964765
 10
441.1262178801699
 20
402.1952608586526
 10
441.5410073765939
 20
402.6014376163636
 10
442.0491589606683
 20
402.8301919565841
 10
442.7433457009461
 20
402.8301919565841
 10
443.8695474150743
 20
402.8301919565841
 10
444.7418455919396
 20
402.1866481199395
 10
444.9533744547339
 20
400.925054153241
 97
        0
 75
     2
 76
     1
 98
        0
  0
SPLINE
  5
301
330
2C0
100
AcDbEntity
  8
Layer 1
370
     0
100
AcDbSpline
210
0.0
220
0.0
230
1.0
 70
    11
 71
     3
 72
    17
 73
    13
 74
     0
 42
0.0000000001
 43
0.0000000001
 12
1.0
 22
0.0
 32
0.0
 13
1.0
 23
0.0
 33
0.0
 40
0.0
 40
0.0
 40
0.0
 40
0.0
 40
1.0
 40
1.0
 40
1.0
 40
2.0
 40
2.0
 40
2.0
 40
3.0
 40
3.0
 40
3.0
 40
4.0
 40
4.0
 40
4.0
 40
4.0
 10
445.5572996932982
 20
401.3274413059182
 30
0.0
 10
445.5572996932982
 20
402.3144611624422
 30
0.0
 10
446.3572508649732
 20
403.1144123341173
 30
0.0
 10
447.3442707214973
 20
403.1144123341173
 30
0.0
 10
448.3316350875699
 20
403.1144123341173
 30
0.0
 10
449.1312417496964
 20
402.3144611624422
 30
0.0
 10
449.1312417496964
 20
401.3274413059182
 30
0.0
 10
449.1312417496964
 20
400.3400769398456
 30
0.0
 10
448.3316350875699
 20
399.5404702777191
 30
0.0
 10
447.3442707214973
 20
399.5404702777191
 30
0.0
 10
446.3572508649732
 20
399.5404702777191
 30
0.0
 10
445.5572996932982
 20
400.3400769398456
 30
0.0
 10
445.5572996932982
 20
401.3274413059182
 30
0.0
  0
SPLINE
  5
302
330
2C0
100
AcDbEntity
  8
Layer 1
370
     0
100
AcDbSpline
210
0.0
220
0.0
230
1.0
 70
    11
 71
     3
 72
    17
 73
    13
 74
     0
 42
0.0000000001
 43
0.0000000001
 12
1.0
 22
0.0
 32
0.0
 13
1.0
 23
0.0
 33
0.0
 40
0.0
 40
0.0
 40
0.0
 40
0.0
 40
1.0
 40
1.0
 40
1.0
 40
2.0
 40
2.0
 40
2.0
 40
3.0
 40
3.0
 40
3.0
 40
4.0
 40
4.0
 40
4.0
 40
4.0
 10
448.7068059859136
 20
401.3274413059182
 30
0.0
 10
448.7068059859136
 20
402.1222248343653
 30
0.0
 10
448.1142495624507
 20
402.7144367482798
 30
0.0
 10
447.3442707214973
 20
402.7144367482798
 30
0.0
 10
446.574291880544
 20
402.7144367482798
 30
0.0
 10
445.9820799666295
 20
402.1222248343653
 30
0.0
 10
445.9820799666295
 20
401.3274413059182
 30
0.0
 10
445.9820799666295
 20
400.532657777471
 30
0.0
 10
446.574291880544
 20
399.9404458635566
 30
0.0
 10
447.3442707214973
 20
399.9404458635566
 30
0.0
 10
448.1142495624507
 20
399.9404458635566
 30
0.0
 10
448.7068059859136
 20
400.532657777471
 30
0.0
 10
448.7068059859136
 20
401.3274413059182
 30
0.0
  0
SPLINE
  5
303
330
2C0
100
AcDbEntity
  8
Layer 1
370
     0
100
AcDbSpline
210
0.0
220
0.0
230
1.0
 70
    11
 71
     3
 72
    35
 73
    31
 74
     0
 42
0.0000000001
 43
0.0000000001
 12
1.0
 22
0.0
 32
0.0
 13
1.0
 23
0.0
 33
0.0
 40
0.0
 40
0.0
 40
0.0
 40
0.0
 40
1.0
 40
1.0
 40
1.0
 40
2.0
 40
2.0
 40
2.0
 40
3.0
 40
3.0
 40
3.0
 40
4.0
 40
4.0
 40
4.0
 40
5.0
 40
5.0
 40
5.0
 40
6.0
 40
6.0
 40
6.0
 40
7.0
 40
7.0
 40
7.0
 40
8.0
 40
8.0
 40
8.0
 40
9.0
 40
9.0
 40
9.0
 40
10.0
 40
10.0
 40
10.0
 40
10.0
 10
446.6928031652366
 20
402.2800102075897
 30
0.0
 10
446.6928031652366
 20
402.2800102075897
 30
0.0
 10
447.4676051398692
 20
402.2800102075897
 30
0.0
 10
447.4676051398692
 20
402.2800102075897
 30
0.0
 10
447.8527668151202
 20
402.2800102075897
 30
0.0
 10
448.099435651864
 20
401.9985459064448
 30
0.0
 10
448.099435651864
 20
401.6826306504474
 30
0.0
 10
448.099435651864
 20
401.4211479031169
 30
0.0
 10
447.9316595017324
 20
401.2533717529853
 30
0.0
 10
447.7490694410141
 20
401.1793022000524
 30
0.0
 10
447.7490694410141
 20
401.1793022000524
 30
0.0
 10
448.1490450268516
 20
400.379695537926
 30
0.0
 10
448.1490450268516
 20
400.379695537926
 30
0.0
 10
448.1490450268516
 20
400.379695537926
 30
0.0
 10
447.6650091111741
 20
400.379695537926
 30
0.0
 10
447.6650091111741
 20
400.379695537926
 30
0.0
 10
447.6650091111741
 20
400.379695537926
 30
0.0
 10
447.319810543552
 20
401.1152234240268
 30
0.0
 10
447.319810543552
 20
401.1152234240268
 30
0.0
 10
447.319810543552
 20
401.1152234240268
 30
0.0
 10
447.1172389290193
 20
401.1152234240268
 30
0.0
 10
447.1172389290193
 20
401.1152234240268
 30
0.0
 10
447.1172389290193
 20
401.1152234240268
 30
0.0
 10
447.1172389290193
 20
400.379695537926
 30
0.0
 10
447.1172389290193
 20
400.379695537926
 30
0.0
 10
447.1172389290193
 20
400.379695537926
 30
0.0
 10
446.6928031652366
 20
400.379695537926
 30
0.0
 10
446.6928031652366
 20
400.379695537926
 30
0.0
 10
446.6928031652366
 20
400.379695537926
 30
0.0
 10
446.6928031652366
 20
402.2800102075897
 30
0.0
 10
446.6928031652366
 20
402.2800102075897
 30
0.0
  0
SPLINE
  5
304
330
2C0
100
AcDbEntity
  8
Layer 1
370
     0
100
AcDbSpline
210
0.0
220
0.0
230
1.0
 70
    11
 71
     3
 72
    20
 73
    16
 74
     0
 42
0.0000000001
 43
0.0000000001
 12
1.0
 22
0.0
 32
0.0
 13
1.0
 23
0.0
 33
0.0
 40
0.0
 40
0.0
 40
0.0
 40
0.0
 40
1.0
 40
1.0
 40
1.0
 40
2.0
 40
2.0
 40
2.0
 40
3.0
 40
3.0
 40
3.0
 40
4.0
 40
4.0
 40
4.0
 40
5.0
 40
5.0
 40
5.0
 40
5.0
 10
447.4135171407508
 20
401.4359618137035
 30
0.0
 10
447.5713025139752
 20
401.4359618137035
 30
0.0
 10
447.6749998880813
 20
401.5496499647168
 30
0.0
 10
447.6749998880813
 20
401.6826306504474
 30
0.0
 10
447.6749998880813
 20
401.8159558457266
 30
0.0
 10
447.5713025139752
 20
401.9296439967399
 30
0.0
 10
447.4135171407508
 20
401.9296439967399
 30
0.0
 10
447.4135171407508
 20
401.9296439967399
 30
0.0
 10
447.1172389290193
 20
401.9296439967399
 30
0.0
 10
447.1172389290193
 20
401.9296439967399
 30
0.0
 10
447.1172389290193
 20
401.9296439967399
 30
0.0
 10
447.1172389290193
 20
401.4359618137035
 30
0.0
 10
447.1172389290193
 20
401.4359618137035
 30
0.0
 10
447.1172389290193
 20
401.4359618137035
 30
0.0
 10
447.4135171407508
 20
401.4359618137035
 30
0.0
 10
447.4135171407508
 20
401.4359618137035
 30
0.0
  0
HATCH
  5
305
330
2C0
100
AcDbEntity
  8
Layer 1
 62
     7
100
AcDbHatch
 10
0.0
 20
0.0
 30
0.0
210
0.0
220
0.0
230
1.0
  2
SOLID
 70
     1
 71
     0
 91
        4
 92
        1
 93
        1
 72
     4
 94
        3
 73
     0
 74
     1
 95
       17
 96
       13
 40
0.0
 40
0.0
 40
0.0
 40
0.0
 40
1.0
 40
1.0
 40
1.0
 40
2.0
 40
2.0
 40
2.0
 40
3.0
 40
3.0
 40
3.0
 40
4.0
 40
4.0
 40
4.0
 40
4.0
 10
445.5572996932982
 20
401.3274413059182
 10
445.5572996932982
 20
402.3144611624422
 10
446.3572508649732
 20
403.1144123341173
 10
447.3442707214973
 20
403.1144123341173
 10
448.3316350875699
 20
403.1144123341173
 10
449.1312417496964
 20
402.3144611624422
 10
449.1312417496964
 20
401.3274413059182
 10
449.1312417496964
 20
400.3400769398456
 10
448.3316350875699
 20
399.5404702777191
 10
447.3442707214973
 20
399.5404702777191
 10
446.3572508649732
 20
399.5404702777191
 10
445.5572996932982
 20
400.3400769398456
 10
445.5572996932982
 20
401.3274413059182
 97
        0
 92
        1
 93
        1
 72
     4
 94
        3
 73
     0
 74
     1
 95
       17
 96
       13
 40
0.0
 40
0.0
 40
0.0
 40
0.0
 40
1.0
 40
1.0
 40
1.0
 40
2.0
 40
2.0
 40
2.0
 40
3.0
 40
3.0
 40
3.0
 40
4.0
 40
4.0
 40
4.0
 40
4.0
 10
448.7068059859136
 20
401.3274413059182
 10
448.7068059859136
 20
402.1222248343653
 10
448.1142495624507
 20
402.7144367482798
 10
447.3442707214973
 20
402.7144367482798
 10
446.574291880544
 20
402.7144367482798
 10
445.9820799666295
 20
402.1222248343653
 10
445.9820799666295
 20
401.3274413059182
 10
445.9820799666295
 20
400.532657777471
 10
446.574291880544
 20
399.9404458635566
 10
447.3442707214973
 20
399.9404458635566
 10
448.1142495624507
 20
399.9404458635566
 10
448.7068059859136
 20
400.532657777471
 10
448.7068059859136
 20
401.3274413059182
 97
        0
 92
        1
 93
        1
 72
     4
 94
        3
 73
     0
 74
     1
 95
       35
 96
       31
 40
0.0
 40
0.0
 40
0.0
 40
0.0
 40
1.0
 40
1.0
 40
1.0
 40
2.0
 40
2.0
 40
2.0
 40
3.0
 40
3.0
 40
3.0
 40
4.0
 40
4.0
 40
4.0
 40
5.0
 40
5.0
 40
5.0
 40
6.0
 40
6.0
 40
6.0
 40
7.0
 40
7.0
 40
7.0
 40
8.0
 40
8.0
 40
8.0
 40
9.0
 40
9.0
 40
9.0
 40
10.0
 40
10.0
 40
10.0
 40
10.0
 10
446.6928031652366
 20
402.2800102075897
 10
446.6928031652366
 20
402.2800102075897
 10
447.4676051398692
 20
402.2800102075897
 10
447.4676051398692
 20
402.2800102075897
 10
447.8527668151202
 20
402.2800102075897
 10
448.099435651864
 20
401.9985459064448
 10
448.099435651864
 20
401.6826306504474
 10
448.099435651864
 20
401.4211479031169
 10
447.9316595017324
 20
401.2533717529853
 10
447.7490694410141
 20
401.1793022000524
 10
447.7490694410141
 20
401.1793022000524
 10
448.1490450268516
 20
400.379695537926
 10
448.1490450268516
 20
400.379695537926
 10
448.1490450268516
 20
400.379695537926
 10
447.6650091111741
 20
400.379695537926
 10
447.6650091111741
 20
400.379695537926
 10
447.6650091111741
 20
400.379695537926
 10
447.319810543552
 20
401.1152234240268
 10
447.319810543552
 20
401.1152234240268
 10
447.319810543552
 20
401.1152234240268
 10
447.1172389290193
 20
401.1152234240268
 10
447.1172389290193
 20
401.1152234240268
 10
447.1172389290193
 20
401.1152234240268
 10
447.1172389290193
 20
400.379695537926
 10
447.1172389290193
 20
400.379695537926
 10
447.1172389290193
 20
400.379695537926
 10
446.6928031652366
 20
400.379695537926
 10
446.6928031652366
 20
400.379695537926
 10
446.6928031652366
 20
400.379695537926
 10
446.6928031652366
 20
402.2800102075897
 10
446.6928031652366
 20
402.2800102075897
 97
        0
 92
        1
 93
        1
 72
     4
 94
        3
 73
     0
 74
     1
 95
       20
 96
       16
 40
0.0
 40
0.0
 40
0.0
 40
0.0
 40
1.0
 40
1.0
 40
1.0
 40
2.0
 40
2.0
 40
2.0
 40
3.0
 40
3.0
 40
3.0
 40
4.0
 40
4.0
 40
4.0
 40
5.0
 40
5.0
 40
5.0
 40
5.0
 10
447.4135171407508
 20
401.4359618137035
 10
447.5713025139752
 20
401.4359618137035
 10
447.6749998880813
 20
401.5496499647168
 10
447.6749998880813
 20
401.6826306504474
 10
447.6749998880813
 20
401.8159558457266
 10
447.5713025139752
 20
401.9296439967399
 10
447.4135171407508
 20
401.9296439967399
 10
447.4135171407508
 20
401.9296439967399
 10
447.1172389290193
 20
401.9296439967399
 10
447.1172389290193
 20
401.9296439967399
 10
447.1172389290193
 20
401.9296439967399
 10
447.1172389290193
 20
401.4359618137035
 10
447.1172389290193
 20
401.4359618137035
 10
447.1172389290193
 20
401.4359618137035
 10
447.4135171407508
 20
401.4359618137035
 10
447.4135171407508
 20
401.4359618137035
 97
        0
 75
     2
 76
     1
 98
        0
  0
SPLINE
  5
306
330
2C0
100
AcDbEntity
  8
Layer 1
370
     0
100
AcDbSpline
210
0.0
220
0.0
230
1.0
 70
    11
 71
     3
 72
    26
 73
    22
 74
     0
 42
0.0000000001
 43
0.0000000001
 12
1.0
 22
0.0
 32
0.0
 13
1.0
 23
0.0
 33
0.0
 40
0.0
 40
0.0
 40
0.0
 40
0.0
 40
1.0
 40
1.0
 40
1.0
 40
2.0
 40
2.0
 40
2.0
 40
3.0
 40
3.0
 40
3.0
 40
4.0
 40
4.0
 40
4.0
 40
5.0
 40
5.0
 40
5.0
 40
6.0
 40
6.0
 40
6.0
 40
7.0
 40
7.0
 40
7.0
 40
7.0
 10
454.6716443090752
 20
402.779549052951
 30
0.0
 10
455.7217094129793
 20
402.779549052951
 30
0.0
 10
456.4500025985611
 20
402.1783798907749
 30
0.0
 10
456.4500025985611
 20
401.1706894613393
 30
0.0
 10
456.4500025985611
 20
400.5354138538592
 30
0.0
 10
456.0689750378925
 20
400.035875008498
 30
0.0
 10
455.5608234538182
 20
399.8498398522945
 30
0.0
 10
456.1364989094034
 20
399.6379664799516
 30
0.0
 10
456.5430201766629
 20
399.1384276345904
 30
0.0
 10
456.5430201766629
 20
398.4187471877217
 30
0.0
 10
456.5430201766629
 20
397.326307409349
 30
0.0
 10
455.8150715006296
 20
396.7506319537637
 30
0.0
 10
454.7481254288477
 20
396.7506319537637
 30
0.0
 10
454.7481254288477
 20
396.7506319537637
 30
0.0
 10
452.4027044224896
 20
396.7506319537637
 30
0.0
 10
452.4027044224896
 20
396.7506319537637
 30
0.0
 10
452.4027044224896
 20
396.7506319537637
 30
0.0
 10
452.4027044224896
 20
402.779549052951
 30
0.0
 10
452.4027044224896
 20
402.779549052951
 30
0.0
 10
452.4027044224896
 20
402.779549052951
 30
0.0
 10
454.6716443090752
 20
402.779549052951
 30
0.0
 10
454.6716443090752
 20
402.779549052951
 30
0.0
  0
SPLINE
  5
307
330
2C0
100
AcDbEntity
  8
Layer 1
370
     0
100
AcDbSpline
210
0.0
220
0.0
230
1.0
 70
    11
 71
     3
 72
    20
 73
    16
 74
     0
 42
0.0000000001
 43
0.0000000001
 12
1.0
 22
0.0
 32
0.0
 13
1.0
 23
0.0
 33
0.0
 40
0.0
 40
0.0
 40
0.0
 40
0.0
 40
1.0
 40
1.0
 40
1.0
 40
2.0
 40
2.0
 40
2.0
 40
3.0
 40
3.0
 40
3.0
 40
4.0
 40
4.0
 40
4.0
 40
5.0
 40
5.0
 40
5.0
 40
5.0
 10
453.0459037495858
 20
402.2035290878172
 30
0.0
 10
453.0459037495858
 20
402.2035290878172
 30
0.0
 10
453.0459037495858
 20
400.1123561282706
 30
0.0
 10
453.0459037495858
 20
400.1123561282706
 30
0.0
 10
453.0459037495858
 20
400.1123561282706
 30
0.0
 10
454.621001405442
 20
400.1123561282706
 30
0.0
 10
454.621001405442
 20
400.1123561282706
 30
0.0
 10
455.2900389486775
 20
400.1123561282706
 30
0.0
 10
455.8064587619165
 20
400.4423962757575
 30
0.0
 10
455.8064587619165
 20
401.1620767226262
 30
0.0
 10
455.8064587619165
 20
401.8817571694948
 30
0.0
 10
455.2900389486775
 20
402.2035290878172
 30
0.0
 10
454.621001405442
 20
402.2035290878172
 30
0.0
 10
454.621001405442
 20
402.2035290878172
 30
0.0
 10
453.0459037495858
 20
402.2035290878172
 30
0.0
 10
453.0459037495858
 20
402.2035290878172
 30
0.0
  0
SPLINE
  5
308
330
2C0
100
AcDbEntity
  8
Layer 1
370
     0
100
AcDbSpline
210
0.0
220
0.0
230
1.0
 70
    11
 71
     3
 72
    20
 73
    16
 74
     0
 42
0.0000000001
 43
0.0000000001
 12
1.0
 22
0.0
 32
0.0
 13
1.0
 23
0.0
 33
0.0
 40
0.0
 40
0.0
 40
0.0
 40
0.0
 40
1.0
 40
1.0
 40
1.0
 40
2.0
 40
2.0
 40
2.0
 40
3.0
 40
3.0
 40
3.0
 40
4.0
 40
4.0
 40
4.0
 40
5.0
 40
5.0
 40
5.0
 40
5.0
 10
453.0459037495858
 20
399.5363361631368
 30
0.0
 10
453.0459037495858
 20
399.5363361631368
 30
0.0
 10
453.0459037495858
 20
397.326307409349
 30
0.0
 10
453.0459037495858
 20
397.326307409349
 30
0.0
 10
453.0459037495858
 20
397.326307409349
 30
0.0
 10
454.6888697865014
 20
397.326307409349
 30
0.0
 10
454.6888697865014
 20
397.326307409349
 30
0.0
 10
455.4340439399609
 20
397.326307409349
 30
0.0
 10
455.8994763400182
 20
397.7583223831993
 30
0.0
 10
455.8994763400182
 20
398.4356281555994
 30
0.0
 10
455.8994763400182
 20
399.1129339279996
 30
0.0
 10
455.4340439399609
 20
399.5363361631368
 30
0.0
 10
454.6888697865014
 20
399.5363361631368
 30
0.0
 10
454.6888697865014
 20
399.5363361631368
 30
0.0
 10
453.0459037495858
 20
399.5363361631368
 30
0.0
 10
453.0459037495858
 20
399.5363361631368
 30
0.0
  0
HATCH
  5
309
330
2C0
100
AcDbEntity
  8
Layer 1
 62
     7
100
AcDbHatch
 10
0.0
 20
0.0
 30
0.0
210
0.0
220
0.0
230
1.0
  2
SOLID
 70
     1
 71
     0
 91
        3
 92
        1
 93
        1
 72
     4
 94
        3
 73
     0
 74
     1
 95
       26
 96
       22
 40
0.0
 40
0.0
 40
0.0
 40
0.0
 40
1.0
 40
1.0
 40
1.0
 40
2.0
 40
2.0
 40
2.0
 40
3.0
 40
3.0
 40
3.0
 40
4.0
 40
4.0
 40
4.0
 40
5.0
 40
5.0
 40
5.0
 40
6.0
 40
6.0
 40
6.0
 40
7.0
 40
7.0
 40
7.0
 40
7.0
 10
454.6716443090752
 20
402.779549052951
 10
455.7217094129793
 20
402.779549052951
 10
456.4500025985611
 20
402.1783798907749
 10
456.4500025985611
 20
401.1706894613393
 10
456.4500025985611
 20
400.5354138538592
 10
456.0689750378925
 20
400.035875008498
 10
455.5608234538182
 20
399.8498398522945
 10
456.1364989094034
 20
399.6379664799516
 10
456.5430201766629
 20
399.1384276345904
 10
456.5430201766629
 20
398.4187471877217
 10
456.5430201766629
 20
397.326307409349
 10
455.8150715006296
 20
396.7506319537637
 10
454.7481254288477
 20
396.7506319537637
 10
454.7481254288477
 20
396.7506319537637
 10
452.4027044224896
 20
396.7506319537637
 10
452.4027044224896
 20
396.7506319537637
 10
452.4027044224896
 20
396.7506319537637
 10
452.4027044224896
 20
402.779549052951
 10
452.4027044224896
 20
402.779549052951
 10
452.4027044224896
 20
402.779549052951
 10
454.6716443090752
 20
402.779549052951
 10
454.6716443090752
 20
402.779549052951
 97
        0
 92
        1
 93
        1
 72
     4
 94
        3
 73
     0
 74
     1
 95
       20
 96
       16
 40
0.0
 40
0.0
 40
0.0
 40
0.0
 40
1.0
 40
1.0
 40
1.0
 40
2.0
 40
2.0
 40
2.0
 40
3.0
 40
3.0
 40
3.0
 40
4.0
 40
4.0
 40
4.0
 40
5.0
 40
5.0
 40
5.0
 40
5.0
 10
453.0459037495858
 20
402.2035290878172
 10
453.0459037495858
 20
402.2035290878172
 10
453.0459037495858
 20
400.1123561282706
 10
453.0459037495858
 20
400.1123561282706
 10
453.0459037495858
 20
400.1123561282706
 10
454.621001405442
 20
400.1123561282706
 10
454.621001405442
 20
400.1123561282706
 10
455.2900389486775
 20
400.1123561282706
 10
455.8064587619165
 20
400.4423962757575
 10
455.8064587619165
 20
401.1620767226262
 10
455.8064587619165
 20
401.8817571694948
 10
455.2900389486775
 20
402.2035290878172
 10
454.621001405442
 20
402.2035290878172
 10
454.621001405442
 20
402.2035290878172
 10
453.0459037495858
 20
402.2035290878172
 10
453.0459037495858
 20
402.2035290878172
 97
        0
 92
        1
 93
        1
 72
     4
 94
        3
 73
     0
 74
     1
 95
       20
 96
       16
 40
0.0
 40
0.0
 40
0.0
 40
0.0
 40
1.0
 40
1.0
 40
1.0
 40
2.0
 40
2.0
 40
2.0
 40
3.0
 40
3.0
 40
3.0
 40
4.0
 40
4.0
 40
4.0
 40
5.0
 40
5.0
 40
5.0
 40
5.0
 10
453.0459037495858
 20
399.5363361631368
 10
453.0459037495858
 20
399.5363361631368
 10
453.0459037495858
 20
397.326307409349
 10
453.0459037495858
 20
397.326307409349
 10
453.0459037495858
 20
397.326307409349
 10
454.6888697865014
 20
397.326307409349
 10
454.6888697865014
 20
397.326307409349
 10
455.4340439399609
 20
397.326307409349
 10
455.8994763400182
 20
397.7583223831993
 10
455.8994763400182
 20
398.4356281555994
 10
455.8994763400182
 20
399.1129339279996
 10
455.4340439399609
 20
399.5363361631368
 10
454.6888697865014
 20
399.5363361631368
 10
454.6888697865014
 20
399.5363361631368
 10
453.0459037495858
 20
399.5363361631368
 10
453.0459037495858
 20
399.5363361631368
 97
        0
 75
     2
 76
     1
 98
        0
  0
SPLINE
  5
30A
330
2C0
100
AcDbEntity
  8
Layer 1
370
     0
100
AcDbSpline
210
0.0
220
0.0
230
1.0
 70
    11
 71
     3
 72
    65
 73
    61
 74
     0
 42
0.0000000001
 43
0.0000000001
 12
1.0
 22
0.0
 32
0.0
 13
1.0
 23
0.0
 33
0.0
 40
0.0
 40
0.0
 40
0.0
 40
0.0
 40
1.0
 40
1.0
 40
1.0
 40
2.0
 40
2.0
 40
2.0
 40
3.0
 40
3.0
 40
3.0
 40
4.0
 40
4.0
 40
4.0
 40
5.0
 40
5.0
 40
5.0
 40
6.0
 40
6.0
 40
6.0
 40
7.0
 40
7.0
 40
7.0
 40
8.0
 40
8.0
 40
8.0
 40
9.0
 40
9.0
 40
9.0
 40
10.0
 40
10.0
 40
10.0
 40
11.0
 40
11.0
 40
11.0
 40
12.0
 40
12.0
 40
12.0
 40
13.0
 40
13.0
 40
13.0
 40
14.0
 40
14.0
 40
14.0
 40
15.0
 40
15.0
 40
15.0
 40
16.0
 40
16.0
 40
16.0
 40
17.0
 40
17.0
 40
17.0
 40
18.0
 40
18.0
 40
18.0
 40
19.0
 40
19.0
 40
19.0
 40
20.0
 40
20.0
 40
20.0
 40
20.0
 10
461.3861354098271
 20
402.1697671520618
 30
0.0
 10
461.3861354098271
 20
402.1697671520618
 30
0.0
 10
460.9710014038545
 20
401.7549776556377
 30
0.0
 10
460.9710014038545
 20
401.7549776556377
 30
0.0
 10
460.6068548110636
 20
402.1018987710023
 30
0.0
 10
460.1920653146395
 20
402.2800102075897
 30
0.0
 10
459.5654024458726
 20
402.2800102075897
 30
0.0
 10
458.7527044209021
 20
402.2800102075897
 30
0.0
 10
458.2869275112964
 20
401.8311142658617
 30
0.0
 10
458.2869275112964
 20
401.1538084934616
 30
0.0
 10
458.2869275112964
 20
400.8571857721815
 30
0.0
 10
458.3716768602335
 20
400.6118949736318
 30
0.0
 10
458.5580565259855
 20
400.4510090144706
 30
0.0
 10
458.744091682189
 20
400.2901230553094
 30
0.0
 10
459.0321016647559
 20
400.1884927384946
 30
0.0
 10
459.3452608443651
 20
400.1375053253129
 30
0.0
 10
459.3452608443651
 20
400.1375053253129
 30
0.0
 10
460.0480603233561
 20
400.0276067793334
 30
0.0
 10
460.0480603233561
 20
400.0276067793334
 30
0.0
 10
460.6068548110636
 20
399.9428574303963
 30
0.0
 10
460.8693710870396
 20
399.8412271135814
 30
0.0
 10
461.1405001017288
 20
399.5955918054831
 30
0.0
 10
461.4622720200511
 20
399.3161945616293
 30
0.0
 10
461.6486516858031
 20
398.9096732943698
 30
0.0
 10
461.6486516858031
 20
398.4101344490086
 30
0.0
 10
461.6486516858031
 20
397.3518011159398
 30
0.0
 10
460.8269964125711
 20
396.6999890501306
 30
0.0
 10
459.5654024458726
 20
396.6999890501306
 30
0.0
 10
458.667955071965
 20
396.6999890501306
 30
0.0
 10
458.0667859097889
 20
396.9283988808027
 30
0.0
 10
457.5079914220814
 20
397.4958061072233
 30
0.0
 10
457.5079914220814
 20
397.4958061072233
 30
0.0
 10
457.9396618863831
 20
397.9274765715251
 30
0.0
 10
457.9396618863831
 20
397.9274765715251
 30
0.0
 10
458.4392007317444
 20
397.4279377261639
 30
0.0
 10
458.9049776413502
 20
397.2756645057158
 30
0.0
 10
459.5822834137503
 20
397.2756645057158
 30
0.0
 10
460.4714625584933
 20
397.2756645057158
 30
0.0
 10
461.0133760783231
 20
397.6821857729753
 30
0.0
 10
461.0133760783231
 20
398.3932534811309
 30
0.0
 10
461.0133760783231
 20
398.7150253994532
 30
0.0
 10
460.9203585002213
 20
398.9689289367161
 30
0.0
 10
460.7170978665916
 20
399.1470403733035
 30
0.0
 10
460.5307182008395
 20
399.3161945616293
 30
0.0
 10
460.3615640125138
 20
399.3754502039756
 30
0.0
 10
459.9295490386635
 20
399.443318585035
 30
0.0
 10
459.9295490386635
 20
399.443318585035
 30
0.0
 10
459.2267495596725
 20
399.5449489018499
 30
0.0
 10
459.2267495596725
 20
399.5449489018499
 30
0.0
 10
458.7527044209021
 20
399.6210855120739
 30
0.0
 10
458.3971705668243
 20
399.7650905033574
 30
0.0
 10
458.1260415521352
 20
400.0021130727425
 30
0.0
 10
457.8211506016906
 20
400.2732420874317
 30
0.0
 10
457.6602646425294
 20
400.6456569093872
 30
0.0
 10
457.6602646425294
 20
401.1365830160353
 30
0.0
 10
457.6602646425294
 20
402.1611544133486
 30
0.0
 10
458.3971705668243
 20
402.8301919565841
 30
0.0
 10
459.5908961524634
 20
402.8301919565841
 30
0.0
 10
460.3615640125138
 20
402.8301919565841
 30
0.0
 10
460.8693710870396
 20
402.6269313229544
 30
0.0
 10
461.3861354098271
 20
402.1697671520618
 30
0.0
  0
HATCH
  5
30B
330
2C0
100
AcDbEntity
  8
Layer 1
 62
     7
100
AcDbHatch
 10
0.0
 20
0.0
 30
0.0
210
0.0
220
0.0
230
1.0
  2
SOLID
 70
     1
 71
     0
 91
        1
 92
        1
 93
        1
 72
     4
 94
        3
 73
     0
 74
     1
 95
       65
 96
       61
 40
0.0
 40
0.0
 40
0.0
 40
0.0
 40
1.0
 40
1.0
 40
1.0
 40
2.0
 40
2.0
 40
2.0
 40
3.0
 40
3.0
 40
3.0
 40
4.0
 40
4.0
 40
4.0
 40
5.0
 40
5.0
 40
5.0
 40
6.0
 40
6.0
 40
6.0
 40
7.0
 40
7.0
 40
7.0
 40
8.0
 40
8.0
 40
8.0
 40
9.0
 40
9.0
 40
9.0
 40
10.0
 40
10.0
 40
10.0
 40
11.0
 40
11.0
 40
11.0
 40
12.0
 40
12.0
 40
12.0
 40
13.0
 40
13.0
 40
13.0
 40
14.0
 40
14.0
 40
14.0
 40
15.0
 40
15.0
 40
15.0
 40
16.0
 40
16.0
 40
16.0
 40
17.0
 40
17.0
 40
17.0
 40
18.0
 40
18.0
 40
18.0
 40
19.0
 40
19.0
 40
19.0
 40
20.0
 40
20.0
 40
20.0
 40
20.0
 10
461.3861354098271
 20
402.1697671520618
 10
461.3861354098271
 20
402.1697671520618
 10
460.9710014038545
 20
401.7549776556377
 10
460.9710014038545
 20
401.7549776556377
 10
460.6068548110636
 20
402.1018987710023
 10
460.1920653146395
 20
402.2800102075897
 10
459.5654024458726
 20
402.2800102075897
 10
458.7527044209021
 20
402.2800102075897
 10
458.2869275112964
 20
401.8311142658617
 10
458.2869275112964
 20
401.1538084934616
 10
458.2869275112964
 20
400.8571857721815
 10
458.3716768602335
 20
400.6118949736318
 10
458.5580565259855
 20
400.4510090144706
 10
458.744091682189
 20
400.2901230553094
 10
459.0321016647559
 20
400.1884927384946
 10
459.3452608443651
 20
400.1375053253129
 10
459.3452608443651
 20
400.1375053253129
 10
460.0480603233561
 20
400.0276067793334
 10
460.0480603233561
 20
400.0276067793334
 10
460.6068548110636
 20
399.9428574303963
 10
460.8693710870396
 20
399.8412271135814
 10
461.1405001017288
 20
399.5955918054831
 10
461.4622720200511
 20
399.3161945616293
 10
461.6486516858031
 20
398.9096732943698
 10
461.6486516858031
 20
398.4101344490086
 10
461.6486516858031
 20
397.3518011159398
 10
460.8269964125711
 20
396.6999890501306
 10
459.5654024458726
 20
396.6999890501306
 10
458.667955071965
 20
396.6999890501306
 10
458.0667859097889
 20
396.9283988808027
 10
457.5079914220814
 20
397.4958061072233
 10
457.5079914220814
 20
397.4958061072233
 10
457.9396618863831
 20
397.9274765715251
 10
457.9396618863831
 20
397.9274765715251
 10
458.4392007317444
 20
397.4279377261639
 10
458.9049776413502
 20
397.2756645057158
 10
459.5822834137503
 20
397.2756645057158
 10
460.4714625584933
 20
397.2756645057158
 10
461.0133760783231
 20
397.6821857729753
 10
461.0133760783231
 20
398.3932534811309
 10
461.0133760783231
 20
398.7150253994532
 10
460.9203585002213
 20
398.9689289367161
 10
460.7170978665916
 20
399.1470403733035
 10
460.5307182008395
 20
399.3161945616293
 10
460.3615640125138
 20
399.3754502039756
 10
459.9295490386635
 20
399.443318585035
 10
459.9295490386635
 20
399.443318585035
 10
459.2267495596725
 20
399.5449489018499
 10
459.2267495596725
 20
399.5449489018499
 10
458.7527044209021
 20
399.6210855120739
 10
458.3971705668243
 20
399.7650905033574
 10
458.1260415521352
 20
400.0021130727425
 10
457.8211506016906
 20
400.2732420874317
 10
457.6602646425294
 20
400.6456569093872
 10
457.6602646425294
 20
401.1365830160353
 10
457.6602646425294
 20
402.1611544133486
 10
458.3971705668243
 20
402.8301919565841
 10
459.5908961524634
 20
402.8301919565841
 10
460.3615640125138
 20
402.8301919565841
 10
460.8693710870396
 20
402.6269313229544
 10
461.3861354098271
 20
402.1697671520618
 97
        0
 75
     2
 76
     1
 98
        0
  0
SPLINE
  5
30C
330
2C0
100
AcDbEntity
  8
Layer 1
370
     0
100
AcDbSpline
210
0.0
220
0.0
230
1.0
 70
    11
 71
     3
 72
    29
 73
    25
 74
     0
 42
0.0000000001
 43
0.0000000001
 12
1.0
 22
0.0
 32
0.0
 13
1.0
 23
0.0
 33
0.0
 40
0.0
 40
0.0
 40
0.0
 40
0.0
 40
1.0
 40
1.0
 40
1.0
 40
2.0
 40
2.0
 40
2.0
 40
3.0
 40
3.0
 40
3.0
 40
4.0
 40
4.0
 40
4.0
 40
5.0
 40
5.0
 40
5.0
 40
6.0
 40
6.0
 40
6.0
 40
7.0
 40
7.0
 40
7.0
 40
8.0
 40
8.0
 40
8.0
 40
8.0
 10
462.5540227793268
 20
398.4101344490086
 30
0.0
 10
462.5540227793268
 20
399.1129339279996
 30
0.0
 10
462.9522758174217
 20
399.5873235763185
 30
0.0
 10
463.4600828919475
 20
399.8749890493368
 30
0.0
 10
462.9860377531771
 20
400.146118064026
 30
0.0
 10
462.6728785735679
 20
400.5864012670409
 30
0.0
 10
462.6728785735679
 20
401.2130641358079
 30
0.0
 10
462.6728785735679
 20
402.152886184184
 30
0.0
 10
463.3756780525589
 20
402.8301919565841
 30
0.0
 10
464.3323810688128
 20
402.8301919565841
 30
0.0
 10
465.2890840850666
 20
402.8301919565841
 30
0.0
 10
465.9918835640576
 20
402.152886184184
 30
0.0
 10
465.9918835640576
 20
401.2130641358079
 30
0.0
 10
465.9918835640576
 20
400.5864012670409
 30
0.0
 10
465.686992613613
 20
400.146118064026
 30
0.0
 10
465.2129474748426
 20
399.8749890493368
 30
0.0
 10
465.721099058917
 20
399.5873235763185
 30
0.0
 10
466.1103948487502
 20
399.1129339279996
 30
0.0
 10
466.1103948487502
 20
398.4101344490086
 30
0.0
 10
466.1103948487502
 20
397.3941757904084
 30
0.0
 10
465.3314587595352
 20
396.6999890501306
 30
0.0
 10
464.3323810688128
 20
396.6999890501306
 30
0.0
 10
463.3333033780903
 20
396.6999890501306
 30
0.0
 10
462.5540227793268
 20
397.3941757904084
 30
0.0
 10
462.5540227793268
 20
398.4101344490086
 30
0.0
  0
SPLINE
  5
30D
330
2C0
100
AcDbEntity
  8
Layer 1
370
     0
100
AcDbSpline
210
0.0
220
0.0
230
1.0
 70
    11
 71
     3
 72
    17
 73
    13
 74
     0
 42
0.0000000001
 43
0.0000000001
 12
1.0
 22
0.0
 32
0.0
 13
1.0
 23
0.0
 33
0.0
 40
0.0
 40
0.0
 40
0.0
 40
0.0
 40
1.0
 40
1.0
 40
1.0
 40
2.0
 40
2.0
 40
2.0
 40
3.0
 40
3.0
 40
3.0
 40
4.0
 40
4.0
 40
4.0
 40
4.0
 10
465.5009574574095
 20
398.4187471877217
 30
0.0
 10
465.5009574574095
 20
399.0877847309573
 30
0.0
 10
464.9928058733352
 20
399.5955918054831
 30
0.0
 10
464.3323810688128
 20
399.5955918054831
 30
0.0
 10
463.6719562642904
 20
399.5955918054831
 30
0.0
 10
463.163804680216
 20
399.0877847309573
 30
0.0
 10
463.163804680216
 20
398.4187471877217
 30
0.0
 10
463.163804680216
 20
397.7497096444862
 30
0.0
 10
463.6719562642904
 20
397.2419025699604
 30
0.0
 10
464.3323810688128
 20
397.2419025699604
 30
0.0
 10
464.9928058733352
 20
397.2419025699604
 30
0.0
 10
465.5009574574095
 20
397.7497096444862
 30
0.0
 10
465.5009574574095
 20
398.4187471877217
 30
0.0
  0
SPLINE
  5
30E
330
2C0
100
AcDbEntity
  8
Layer 1
370
     0
100
AcDbSpline
210
0.0
220
0.0
230
1.0
 70
    11
 71
     3
 72
    17
 73
    13
 74
     0
 42
0.0000000001
 43
0.0000000001
 12
1.0
 22
0.0
 32
0.0
 13
1.0
 23
0.0
 33
0.0
 40
0.0
 40
0.0
 40
0.0
 40
0.0
 40
1.0
 40
1.0
 40
1.0
 40
2.0
 40
2.0
 40
2.0
 40
3.0
 40
3.0
 40
3.0
 40
4.0
 40
4.0
 40
4.0
 40
4.0
 10
465.3824461727169
 20
401.2044513970947
 30
0.0
 10
465.3824461727169
 20
401.8311142658617
 30
0.0
 10
464.9504311988666
 20
402.2882784367544
 30
0.0
 10
464.3323810688128
 20
402.2882784367544
 30
0.0
 10
463.714330938759
 20
402.2882784367544
 30
0.0
 10
463.2823159649086
 20
401.8311142658617
 30
0.0
 10
463.2823159649086
 20
401.2044513970947
 30
0.0
 10
463.2823159649086
 20
400.5695202991632
 30
0.0
 10
463.714330938759
 20
400.1292370961482
 30
0.0
 10
464.3323810688128
 20
400.1292370961482
 30
0.0
 10
464.9504311988666
 20
400.1292370961482
 30
0.0
 10
465.3824461727169
 20
400.5695202991632
 30
0.0
 10
465.3824461727169
 20
401.2044513970947
 30
0.0
  0
HATCH
  5
30F
330
2C0
100
AcDbEntity
  8
Layer 1
 62
     7
100
AcDbHatch
 10
0.0
 20
0.0
 30
0.0
210
0.0
220
0.0
230
1.0
  2
SOLID
 70
     1
 71
     0
 91
        3
 92
        1
 93
        1
 72
     4
 94
        3
 73
     0
 74
     1
 95
       29
 96
       25
 40
0.0
 40
0.0
 40
0.0
 40
0.0
 40
1.0
 40
1.0
 40
1.0
 40
2.0
 40
2.0
 40
2.0
 40
3.0
 40
3.0
 40
3.0
 40
4.0
 40
4.0
 40
4.0
 40
5.0
 40
5.0
 40
5.0
 40
6.0
 40
6.0
 40
6.0
 40
7.0
 40
7.0
 40
7.0
 40
8.0
 40
8.0
 40
8.0
 40
8.0
 10
462.5540227793268
 20
398.4101344490086
 10
462.5540227793268
 20
399.1129339279996
 10
462.9522758174217
 20
399.5873235763185
 10
463.4600828919475
 20
399.8749890493368
 10
462.9860377531771
 20
400.146118064026
 10
462.6728785735679
 20
400.5864012670409
 10
462.6728785735679
 20
401.2130641358079
 10
462.6728785735679
 20
402.152886184184
 10
463.3756780525589
 20
402.8301919565841
 10
464.3323810688128
 20
402.8301919565841
 10
465.2890840850666
 20
402.8301919565841
 10
465.9918835640576
 20
402.152886184184
 10
465.9918835640576
 20
401.2130641358079
 10
465.9918835640576
 20
400.5864012670409
 10
465.686992613613
 20
400.146118064026
 10
465.2129474748426
 20
399.8749890493368
 10
465.721099058917
 20
399.5873235763185
 10
466.1103948487502
 20
399.1129339279996
 10
466.1103948487502
 20
398.4101344490086
 10
466.1103948487502
 20
397.3941757904084
 10
465.3314587595352
 20
396.6999890501306
 10
464.3323810688128
 20
396.6999890501306
 10
463.3333033780903
 20
396.6999890501306
 10
462.5540227793268
 20
397.3941757904084
 10
462.5540227793268
 20
398.4101344490086
 97
        0
 92
        1
 93
        1
 72
     4
 94
        3
 73
     0
 74
     1
 95
       17
 96
       13
 40
0.0
 40
0.0
 40
0.0
 40
0.0
 40
1.0
 40
1.0
 40
1.0
 40
2.0
 40
2.0
 40
2.0
 40
3.0
 40
3.0
 40
3.0
 40
4.0
 40
4.0
 40
4.0
 40
4.0
 10
465.5009574574095
 20
398.4187471877217
 10
465.5009574574095
 20
399.0877847309573
 10
464.9928058733352
 20
399.5955918054831
 10
464.3323810688128
 20
399.5955918054831
 10
463.6719562642904
 20
399.5955918054831
 10
463.163804680216
 20
399.0877847309573
 10
463.163804680216
 20
398.4187471877217
 10
463.163804680216
 20
397.7497096444862
 10
463.6719562642904
 20
397.2419025699604
 10
464.3323810688128
 20
397.2419025699604
 10
464.9928058733352
 20
397.2419025699604
 10
465.5009574574095
 20
397.7497096444862
 10
465.5009574574095
 20
398.4187471877217
 97
        0
 92
        1
 93
        1
 72
     4
 94
        3
 73
     0
 74
     1
 95
       17
 96
       13
 40
0.0
 40
0.0
 40
0.0
 40
0.0
 40
1.0
 40
1.0
 40
1.0
 40
2.0
 40
2.0
 40
2.0
 40
3.0
 40
3.0
 40
3.0
 40
4.0
 40
4.0
 40
4.0
 40
4.0
 10
465.3824461727169
 20
401.2044513970947
 10
465.3824461727169
 20
401.8311142658617
 10
464.9504311988666
 20
402.2882784367544
 10
464.3323810688128
 20
402.2882784367544
 10
463.714330938759
 20
402.2882784367544
 10
463.2823159649086
 20
401.8311142658617
 10
463.2823159649086
 20
401.2044513970947
 10
463.2823159649086
 20
400.5695202991632
 10
463.714330938759
 20
400.1292370961482
 10
464.3323810688128
 20
400.1292370961482
 10
464.9504311988666
 20
400.1292370961482
 10
465.3824461727169
 20
400.5695202991632
 10
465.3824461727169
 20
401.2044513970947
 97
        0
 75
     2
 76
     1
 98
        0
  0
SPLINE
  5
310
330
2C0
100
AcDbEntity
  8
Layer 1
370
     0
100
AcDbSpline
210
0.0
220
0.0
230
1.0
 70
    11
 71
     3
 72
    29
 73
    25
 74
     0
 42
0.0000000001
 43
0.0000000001
 12
1.0
 22
0.0
 32
0.0
 13
1.0
 23
0.0
 33
0.0
 40
0.0
 40
0.0
 40
0.0
 40
0.0
 40
1.0
 40
1.0
 40
1.0
 40
2.0
 40
2.0
 40
2.0
 40
3.0
 40
3.0
 40
3.0
 40
4.0
 40
4.0
 40
4.0
 40
5.0
 40
5.0
 40
5.0
 40
6.0
 40
6.0
 40
6.0
 40
7.0
 40
7.0
 40
7.0
 40
8.0
 40
8.0
 40
8.0
 40
8.0
 10
466.9733912678053
 20
398.4101344490086
 30
0.0
 10
466.9733912678053
 20
399.1129339279996
 30
0.0
 10
467.3716443059002
 20
399.5873235763185
 30
0.0
 10
467.879451380426
 20
399.8749890493368
 30
0.0
 10
467.4054062416556
 20
400.146118064026
 30
0.0
 10
467.0922470620464
 20
400.5864012670409
 30
0.0
 10
467.0922470620464
 20
401.2130641358079
 30
0.0
 10
467.0922470620464
 20
402.152886184184
 30
0.0
 10
467.7950465410374
 20
402.8301919565841
 30
0.0
 10
468.7517495572912
 20
402.8301919565841
 30
0.0
 10
469.7084525735451
 20
402.8301919565841
 30
0.0
 10
470.4112520525361
 20
402.152886184184
 30
0.0
 10
470.4112520525361
 20
401.2130641358079
 30
0.0
 10
470.4112520525361
 20
400.5864012670409
 30
0.0
 10
470.1063611020915
 20
400.146118064026
 30
0.0
 10
469.6323159633211
 20
399.8749890493368
 30
0.0
 10
470.1404675473955
 20
399.5873235763185
 30
0.0
 10
470.5297633372287
 20
399.1129339279996
 30
0.0
 10
470.5297633372287
 20
398.4101344490086
 30
0.0
 10
470.5297633372287
 20
397.3941757904084
 30
0.0
 10
469.7508272480137
 20
396.6999890501306
 30
0.0
 10
468.7517495572912
 20
396.6999890501306
 30
0.0
 10
467.7526718665688
 20
396.6999890501306
 30
0.0
 10
466.9733912678053
 20
397.3941757904084
 30
0.0
 10
466.9733912678053
 20
398.4101344490086
 30
0.0
  0
SPLINE
  5
311
330
2C0
100
AcDbEntity
  8
Layer 1
370
     0
100
AcDbSpline
210
0.0
220
0.0
230
1.0
 70
    11
 71
     3
 72
    17
 73
    13
 74
     0
 42
0.0000000001
 43
0.0000000001
 12
1.0
 22
0.0
 32
0.0
 13
1.0
 23
0.0
 33
0.0
 40
0.0
 40
0.0
 40
0.0
 40
0.0
 40
1.0
 40
1.0
 40
1.0
 40
2.0
 40
2.0
 40
2.0
 40
3.0
 40
3.0
 40
3.0
 40
4.0
 40
4.0
 40
4.0
 40
4.0
 10
469.920325945888
 20
398.4187471877217
 30
0.0
 10
469.920325945888
 20
399.0877847309573
 30
0.0
 10
469.4121743618136
 20
399.5955918054831
 30
0.0
 10
468.7517495572912
 20
399.5955918054831
 30
0.0
 10
468.0913247527689
 20
399.5955918054831
 30
0.0
 10
467.5831731686945
 20
399.0877847309573
 30
0.0
 10
467.5831731686945
 20
398.4187471877217
 30
0.0
 10
467.5831731686945
 20
397.7497096444862
 30
0.0
 10
468.0913247527689
 20
397.2419025699604
 30
0.0
 10
468.7517495572912
 20
397.2419025699604
 30
0.0
 10
469.4121743618136
 20
397.2419025699604
 30
0.0
 10
469.920325945888
 20
397.7497096444862
 30
0.0
 10
469.920325945888
 20
398.4187471877217
 30
0.0
  0
SPLINE
  5
312
330
2C0
100
AcDbEntity
  8
Layer 1
370
     0
100
AcDbSpline
210
0.0
220
0.0
230
1.0
 70
    11
 71
     3
 72
    17
 73
    13
 74
     0
 42
0.0000000001
 43
0.0000000001
 12
1.0
 22
0.0
 32
0.0
 13
1.0
 23
0.0
 33
0.0
 40
0.0
 40
0.0
 40
0.0
 40
0.0
 40
1.0
 40
1.0
 40
1.0
 40
2.0
 40
2.0
 40
2.0
 40
3.0
 40
3.0
 40
3.0
 40
4.0
 40
4.0
 40
4.0
 40
4.0
 10
469.8018146611954
 20
401.2044513970947
 30
0.0
 10
469.8018146611954
 20
401.8311142658617
 30
0.0
 10
469.3697996873451
 20
402.2882784367544
 30
0.0
 10
468.7517495572912
 20
402.2882784367544
 30
0.0
 10
468.1336994272374
 20
402.2882784367544
 30
0.0
 10
467.7016844533871
 20
401.8311142658617
 30
0.0
 10
467.7016844533871
 20
401.2044513970947
 30
0.0
 10
467.7016844533871
 20
400.5695202991632
 30
0.0
 10
468.1336994272374
 20
400.1292370961482
 30
0.0
 10
468.7517495572912
 20
400.1292370961482
 30
0.0
 10
469.3697996873451
 20
400.1292370961482
 30
0.0
 10
469.8018146611954
 20
400.5695202991632
 30
0.0
 10
469.8018146611954
 20
401.2044513970947
 30
0.0
  0
HATCH
  5
313
330
2C0
100
AcDbEntity
  8
Layer 1
 62
     7
100
AcDbHatch
 10
0.0
 20
0.0
 30
0.0
210
0.0
220
0.0
230
1.0
  2
SOLID
 70
     1
 71
     0
 91
        3
 92
        1
 93
        1
 72
     4
 94
        3
 73
     0
 74
     1
 95
       29
 96
       25
 40
0.0
 40
0.0
 40
0.0
 40
0.0
 40
1.0
 40
1.0
 40
1.0
 40
2.0
 40
2.0
 40
2.0
 40
3.0
 40
3.0
 40
3.0
 40
4.0
 40
4.0
 40
4.0
 40
5.0
 40
5.0
 40
5.0
 40
6.0
 40
6.0
 40
6.0
 40
7.0
 40
7.0
 40
7.0
 40
8.0
 40
8.0
 40
8.0
 40
8.0
 10
466.9733912678053
 20
398.4101344490086
 10
466.9733912678053
 20
399.1129339279996
 10
467.3716443059002
 20
399.5873235763185
 10
467.879451380426
 20
399.8749890493368
 10
467.4054062416556
 20
400.146118064026
 10
467.0922470620464
 20
400.5864012670409
 10
467.0922470620464
 20
401.2130641358079
 10
467.0922470620464
 20
402.152886184184
 10
467.7950465410374
 20
402.8301919565841
 10
468.7517495572912
 20
402.8301919565841
 10
469.7084525735451
 20
402.8301919565841
 10
470.4112520525361
 20
402.152886184184
 10
470.4112520525361
 20
401.2130641358079
 10
470.4112520525361
 20
400.5864012670409
 10
470.1063611020915
 20
400.146118064026
 10
469.6323159633211
 20
399.8749890493368
 10
470.1404675473955
 20
399.5873235763185
 10
470.5297633372287
 20
399.1129339279996
 10
470.5297633372287
 20
398.4101344490086
 10
470.5297633372287
 20
397.3941757904084
 10
469.7508272480137
 20
396.6999890501306
 10
468.7517495572912
 20
396.6999890501306
 10
467.7526718665688
 20
396.6999890501306
 10
466.9733912678053
 20
397.3941757904084
 10
466.9733912678053
 20
398.4101344490086
 97
        0
 92
        1
 93
        1
 72
     4
 94
        3
 73
     0
 74
     1
 95
       17
 96
       13
 40
0.0
 40
0.0
 40
0.0
 40
0.0
 40
1.0
 40
1.0
 40
1.0
 40
2.0
 40
2.0
 40
2.0
 40
3.0
 40
3.0
 40
3.0
 40
4.0
 40
4.0
 40
4.0
 40
4.0
 10
469.920325945888
 20
398.4187471877217
 10
469.920325945888
 20
399.0877847309573
 10
469.4121743618136
 20
399.5955918054831
 10
468.7517495572912
 20
399.5955918054831
 10
468.0913247527689
 20
399.5955918054831
 10
467.5831731686945
 20
399.0877847309573
 10
467.5831731686945
 20
398.4187471877217
 10
467.5831731686945
 20
397.7497096444862
 10
468.0913247527689
 20
397.2419025699604
 10
468.7517495572912
 20
397.2419025699604
 10
469.4121743618136
 20
397.2419025699604
 10
469.920325945888
 20
397.7497096444862
 10
469.920325945888
 20
398.4187471877217
 97
        0
 92
        1
 93
        1
 72
     4
 94
        3
 73
     0
 74
     1
 95
       17
 96
       13
 40
0.0
 40
0.0
 40
0.0
 40
0.0
 40
1.0
 40
1.0
 40
1.0
 40
2.0
 40
2.0
 40
2.0
 40
3.0
 40
3.0
 40
3.0
 40
4.0
 40
4.0
 40
4.0
 40
4.0
 10
469.8018146611954
 20
401.2044513970947
 10
469.8018146611954
 20
401.8311142658617
 10
469.3697996873451
 20
402.2882784367544
 10
468.7517495572912
 20
402.2882784367544
 10
468.1336994272374
 20
402.2882784367544
 10
467.7016844533871
 20
401.8311142658617
 10
467.7016844533871
 20
401.2044513970947
 10
467.7016844533871
 20
400.5695202991632
 10
468.1336994272374
 20
400.1292370961482
 10
468.7517495572912
 20
400.1292370961482
 10
469.3697996873451
 20
400.1292370961482
 10
469.8018146611954
 20
400.5695202991632
 10
469.8018146611954
 20
401.2044513970947
 97
        0
 75
     2
 76
     1
 98
        0
  0
SPLINE
  5
314
330
2C0
100
AcDbEntity
  8
Layer 1
370
     0
100
AcDbSpline
210
0.0
220
0.0
230
1.0
 70
    11
 71
     3
 72
    65
 73
    61
 74
     0
 42
0.0000000001
 43
0.0000000001
 12
1.0
 22
0.0
 32
0.0
 13
1.0
 23
0.0
 33
0.0
 40
0.0
 40
0.0
 40
0.0
 40
0.0
 40
1.0
 40
1.0
 40
1.0
 40
2.0
 40
2.0
 40
2.0
 40
3.0
 40
3.0
 40
3.0
 40
4.0
 40
4.0
 40
4.0
 40
5.0
 40
5.0
 40
5.0
 40
6.0
 40
6.0
 40
6.0
 40
7.0
 40
7.0
 40
7.0
 40
8.0
 40
8.0
 40
8.0
 40
9.0
 40
9.0
 40
9.0
 40
10.0
 40
10.0
 40
10.0
 40
11.0
 40
11.0
 40
11.0
 40
12.0
 40
12.0
 40
12.0
 40
13.0
 40
13.0
 40
13.0
 40
14.0
 40
14.0
 40
14.0
 40
15.0
 40
15.0
 40
15.0
 40
16.0
 40
16.0
 40
16.0
 40
17.0
 40
17.0
 40
17.0
 40
18.0
 40
18.0
 40
18.0
 40
19.0
 40
19.0
 40
19.0
 40
20.0
 40
20.0
 40
20.0
 40
20.0
 10
477.3117783094915
 20
402.1697671520618
 30
0.0
 10
477.3117783094915
 20
402.1697671520618
 30
0.0
 10
476.8966443035189
 20
401.7549776556377
 30
0.0
 10
476.8966443035189
 20
401.7549776556377
 30
0.0
 10
476.532497710728
 20
402.1018987710023
 30
0.0
 10
476.1177082143039
 20
402.2800102075897
 30
0.0
 10
475.491045345537
 20
402.2800102075897
 30
0.0
 10
474.6783473205666
 20
402.2800102075897
 30
0.0
 10
474.2125704109608
 20
401.8311142658617
 30
0.0
 10
474.2125704109608
 20
401.1538084934616
 30
0.0
 10
474.2125704109608
 20
400.8571857721815
 30
0.0
 10
474.2973197598979
 20
400.6118949736318
 30
0.0
 10
474.4836994256499
 20
400.4510090144706
 30
0.0
 10
474.6697345818534
 20
400.2901230553094
 30
0.0
 10
474.9577445644203
 20
400.1884927384946
 30
0.0
 10
475.2709037440295
 20
400.1375053253129
 30
0.0
 10
475.2709037440295
 20
400.1375053253129
 30
0.0
 10
475.9737032230205
 20
400.0276067793334
 30
0.0
 10
475.9737032230205
 20
400.0276067793334
 30
0.0
 10
476.532497710728
 20
399.9428574303963
 30
0.0
 10
476.795013986704
 20
399.8412271135814
 30
0.0
 10
477.0661430013932
 20
399.5955918054831
 30
0.0
 10
477.3879149197156
 20
399.3161945616293
 30
0.0
 10
477.5742945854676
 20
398.9096732943698
 30
0.0
 10
477.5742945854676
 20
398.4101344490086
 30
0.0
 10
477.5742945854676
 20
397.3518011159398
 30
0.0
 10
476.7526393122355
 20
396.6999890501306
 30
0.0
 10
475.491045345537
 20
396.6999890501306
 30
0.0
 10
474.5935979716294
 20
396.6999890501306
 30
0.0
 10
473.9924288094533
 20
396.9283988808027
 30
0.0
 10
473.4336343217458
 20
397.4958061072233
 30
0.0
 10
473.4336343217458
 20
397.4958061072233
 30
0.0
 10
473.8653047860476
 20
397.9274765715251
 30
0.0
 10
473.8653047860476
 20
397.9274765715251
 30
0.0
 10
474.3648436314088
 20
397.4279377261639
 30
0.0
 10
474.8306205410146
 20
397.2756645057158
 30
0.0
 10
475.5082708229633
 20
397.2756645057158
 30
0.0
 10
476.3971054581577
 20
397.2756645057158
 30
0.0
 10
476.9390189779875
 20
397.6821857729753
 30
0.0
 10
476.9390189779875
 20
398.3932534811309
 30
0.0
 10
476.9390189779875
 20
398.7150253994532
 30
0.0
 10
476.8460013998857
 20
398.9689289367161
 30
0.0
 10
476.642740766256
 20
399.1470403733035
 30
0.0
 10
476.456361100504
 20
399.3161945616293
 30
0.0
 10
476.2872069121782
 20
399.3754502039756
 30
0.0
 10
475.8551919383279
 20
399.443318585035
 30
0.0
 10
475.8551919383279
 20
399.443318585035
 30
0.0
 10
475.1523924593369
 20
399.5449489018499
 30
0.0
 10
475.1523924593369
 20
399.5449489018499
 30
0.0
 10
474.6783473205666
 20
399.6210855120739
 30
0.0
 10
474.3228134664888
 20
399.7650905033574
 30
0.0
 10
474.0516844517996
 20
400.0021130727425
 30
0.0
 10
473.746793501355
 20
400.2732420874317
 30
0.0
 10
473.5859075421938
 20
400.6456569093872
 30
0.0
 10
473.5859075421938
 20
401.1365830160353
 30
0.0
 10
473.5859075421938
 20
402.1611544133486
 30
0.0
 10
474.3228134664888
 20
402.8301919565841
 30
0.0
 10
475.5165390521278
 20
402.8301919565841
 30
0.0
 10
476.2872069121782
 20
402.8301919565841
 30
0.0
 10
476.795013986704
 20
402.6269313229544
 30
0.0
 10
477.3117783094915
 20
402.1697671520618
 30
0.0
  0
HATCH
  5
315
330
2C0
100
AcDbEntity
  8
Layer 1
 62
     7
100
AcDbHatch
 10
0.0
 20
0.0
 30
0.0
210
0.0
220
0.0
230
1.0
  2
SOLID
 70
     1
 71
     0
 91
        1
 92
        1
 93
        1
 72
     4
 94
        3
 73
     0
 74
     1
 95
       65
 96
       61
 40
0.0
 40
0.0
 40
0.0
 40
0.0
 40
1.0
 40
1.0
 40
1.0
 40
2.0
 40
2.0
 40
2.0
 40
3.0
 40
3.0
 40
3.0
 40
4.0
 40
4.0
 40
4.0
 40
5.0
 40
5.0
 40
5.0
 40
6.0
 40
6.0
 40
6.0
 40
7.0
 40
7.0
 40
7.0
 40
8.0
 40
8.0
 40
8.0
 40
9.0
 40
9.0
 40
9.0
 40
10.0
 40
10.0
 40
10.0
 40
11.0
 40
11.0
 40
11.0
 40
12.0
 40
12.0
 40
12.0
 40
13.0
 40
13.0
 40
13.0
 40
14.0
 40
14.0
 40
14.0
 40
15.0
 40
15.0
 40
15.0
 40
16.0
 40
16.0
 40
16.0
 40
17.0
 40
17.0
 40
17.0
 40
18.0
 40
18.0
 40
18.0
 40
19.0
 40
19.0
 40
19.0
 40
20.0
 40
20.0
 40
20.0
 40
20.0
 10
477.3117783094915
 20
402.1697671520618
 10
477.3117783094915
 20
402.1697671520618
 10
476.8966443035189
 20
401.7549776556377
 10
476.8966443035189
 20
401.7549776556377
 10
476.532497710728
 20
402.1018987710023
 10
476.1177082143039
 20
402.2800102075897
 10
475.491045345537
 20
402.2800102075897
 10
474.6783473205666
 20
402.2800102075897
 10
474.2125704109608
 20
401.8311142658617
 10
474.2125704109608
 20
401.1538084934616
 10
474.2125704109608
 20
400.8571857721815
 10
474.2973197598979
 20
400.6118949736318
 10
474.4836994256499
 20
400.4510090144706
 10
474.6697345818534
 20
400.2901230553094
 10
474.9577445644203
 20
400.1884927384946
 10
475.2709037440295
 20
400.1375053253129
 10
475.2709037440295
 20
400.1375053253129
 10
475.9737032230205
 20
400.0276067793334
 10
475.9737032230205
 20
400.0276067793334
 10
476.532497710728
 20
399.9428574303963
 10
476.795013986704
 20
399.8412271135814
 10
477.0661430013932
 20
399.5955918054831
 10
477.3879149197156
 20
399.3161945616293
 10
477.5742945854676
 20
398.9096732943698
 10
477.5742945854676
 20
398.4101344490086
 10
477.5742945854676
 20
397.3518011159398
 10
476.7526393122355
 20
396.6999890501306
 10
475.491045345537
 20
396.6999890501306
 10
474.5935979716294
 20
396.6999890501306
 10
473.9924288094533
 20
396.9283988808027
 10
473.4336343217458
 20
397.4958061072233
 10
473.4336343217458
 20
397.4958061072233
 10
473.8653047860476
 20
397.9274765715251
 10
473.8653047860476
 20
397.9274765715251
 10
474.3648436314088
 20
397.4279377261639
 10
474.8306205410146
 20
397.2756645057158
 10
475.5082708229633
 20
397.2756645057158
 10
476.3971054581577
 20
397.2756645057158
 10
476.9390189779875
 20
397.6821857729753
 10
476.9390189779875
 20
398.3932534811309
 10
476.9390189779875
 20
398.7150253994532
 10
476.8460013998857
 20
398.9689289367161
 10
476.642740766256
 20
399.1470403733035
 10
476.456361100504
 20
399.3161945616293
 10
476.2872069121782
 20
399.3754502039756
 10
475.8551919383279
 20
399.443318585035
 10
475.8551919383279
 20
399.443318585035
 10
475.1523924593369
 20
399.5449489018499
 10
475.1523924593369
 20
399.5449489018499
 10
474.6783473205666
 20
399.6210855120739
 10
474.3228134664888
 20
399.7650905033574
 10
474.0516844517996
 20
400.0021130727425
 10
473.746793501355
 20
400.2732420874317
 10
473.5859075421938
 20
400.6456569093872
 10
473.5859075421938
 20
401.1365830160353
 10
473.5859075421938
 20
402.1611544133486
 10
474.3228134664888
 20
402.8301919565841
 10
475.5165390521278
 20
402.8301919565841
 10
476.2872069121782
 20
402.8301919565841
 10
476.795013986704
 20
402.6269313229544
 10
477.3117783094915
 20
402.1697671520618
 97
        0
 75
     2
 76
     1
 98
        0
  0
SPLINE
  5
316
330
2C0
100
AcDbEntity
  8
Layer 1
370
     0
100
AcDbSpline
210
0.0
220
0.0
230
1.0
 70
    11
 71
     3
 72
    53
 73
    49
 74
     0
 42
0.0000000001
 43
0.0000000001
 12
1.0
 22
0.0
 32
0.0
 13
1.0
 23
0.0
 33
0.0
 40
0.0
 40
0.0
 40
0.0
 40
0.0
 40
1.0
 40
1.0
 40
1.0
 40
2.0
 40
2.0
 40
2.0
 40
3.0
 40
3.0
 40
3.0
 40
4.0
 40
4.0
 40
4.0
 40
5.0
 40
5.0
 40
5.0
 40
6.0
 40
6.0
 40
6.0
 40
7.0
 40
7.0
 40
7.0
 40
8.0
 40
8.0
 40
8.0
 40
9.0
 40
9.0
 40
9.0
 40
10.0
 40
10.0
 40
10.0
 40
11.0
 40
11.0
 40
11.0
 40
12.0
 40
12.0
 40
12.0
 40
13.0
 40
13.0
 40
13.0
 40
14.0
 40
14.0
 40
14.0
 40
15.0
 40
15.0
 40
15.0
 40
16.0
 40
16.0
 40
16.0
 40
16.0
 10
479.5214625537308
 20
400.9164414145279
 30
0.0
 10
479.5214625537308
 20
400.9164414145279
 30
0.0
 10
480.4102971889252
 20
400.9164414145279
 30
0.0
 10
480.4102971889252
 20
400.9164414145279
 30
0.0
 10
480.4102971889252
 20
400.9164414145279
 30
0.0
 10
480.4102971889252
 20
400.4510090144706
 30
0.0
 10
480.4102971889252
 20
400.4510090144706
 30
0.0
 10
480.4102971889252
 20
400.4510090144706
 30
0.0
 10
479.5214625537308
 20
400.4510090144706
 30
0.0
 10
479.5214625537308
 20
400.4510090144706
 30
0.0
 10
479.5214625537308
 20
400.4510090144706
 30
0.0
 10
479.5214625537308
 20
397.8851018970565
 30
0.0
 10
479.5214625537308
 20
397.8851018970565
 30
0.0
 10
479.5214625537308
 20
397.4958061072233
 30
0.0
 10
479.6992294807696
 20
397.2756645057158
 30
0.0
 10
480.0885252706029
 20
397.2756645057158
 30
0.0
 10
480.0885252706029
 20
397.2756645057158
 30
0.0
 10
480.4102971889252
 20
397.2756645057158
 30
0.0
 10
480.4102971889252
 20
397.2756645057158
 30
0.0
 10
480.4102971889252
 20
397.2756645057158
 30
0.0
 10
480.4102971889252
 20
396.7506319537637
 30
0.0
 10
480.4102971889252
 20
396.7506319537637
 30
0.0
 10
480.4102971889252
 20
396.7506319537637
 30
0.0
 10
479.9786267246234
 20
396.7506319537637
 30
0.0
 10
479.9786267246234
 20
396.7506319537637
 30
0.0
 10
479.2672145069193
 20
396.7506319537637
 30
0.0
 10
478.9116806528415
 20
397.250170799125
 30
0.0
 10
478.9116806528415
 20
397.8682209291788
 30
0.0
 10
478.9116806528415
 20
397.8682209291788
 30
0.0
 10
478.9116806528415
 20
400.4510090144706
 30
0.0
 10
478.9116806528415
 20
400.4510090144706
 30
0.0
 10
478.9116806528415
 20
400.4510090144706
 30
0.0
 10
478.3866481008895
 20
400.4510090144706
 30
0.0
 10
478.3866481008895
 20
400.4510090144706
 30
0.0
 10
478.3866481008895
 20
400.4510090144706
 30
0.0
 10
478.3866481008895
 20
400.9164414145279
 30
0.0
 10
478.3866481008895
 20
400.9164414145279
 30
0.0
 10
478.3866481008895
 20
400.9164414145279
 30
0.0
 10
478.9116806528415
 20
400.9164414145279
 30
0.0
 10
478.9116806528415
 20
400.9164414145279
 30
0.0
 10
478.9116806528415
 20
400.9164414145279
 30
0.0
 10
478.9116806528415
 20
402.1952608586526
 30
0.0
 10
478.9116806528415
 20
402.1952608586526
 30
0.0
 10
478.9116806528415
 20
402.1952608586526
 30
0.0
 10
479.5214625537308
 20
402.1952608586526
 30
0.0
 10
479.5214625537308
 20
402.1952608586526
 30
0.0
 10
479.5214625537308
 20
402.1952608586526
 30
0.0
 10
479.5214625537308
 20
400.9164414145279
 30
0.0
 10
479.5214625537308
 20
400.9164414145279
 30
0.0
  0
HATCH
  5
317
330
2C0
100
AcDbEntity
  8
Layer 1
 62
     7
100
AcDbHatch
 10
0.0
 20
0.0
 30
0.0
210
0.0
220
0.0
230
1.0
  2
SOLID
 70
     1
 71
     0
 91
        1
 92
        1
 93
        1
 72
     4
 94
        3
 73
     0
 74
     1
 95
       53
 96
       49
 40
0.0
 40
0.0
 40
0.0
 40
0.0
 40
1.0
 40
1.0
 40
1.0
 40
2.0
 40
2.0
 40
2.0
 40
3.0
 40
3.0
 40
3.0
 40
4.0
 40
4.0
 40
4.0
 40
5.0
 40
5.0
 40
5.0
 40
6.0
 40
6.0
 40
6.0
 40
7.0
 40
7.0
 40
7.0
 40
8.0
 40
8.0
 40
8.0
 40
9.0
 40
9.0
 40
9.0
 40
10.0
 40
10.0
 40
10.0
 40
11.0
 40
11.0
 40
11.0
 40
12.0
 40
12.0
 40
12.0
 40
13.0
 40
13.0
 40
13.0
 40
14.0
 40
14.0
 40
14.0
 40
15.0
 40
15.0
 40
15.0
 40
16.0
 40
16.0
 40
16.0
 40
16.0
 10
479.5214625537308
 20
400.9164414145279
 10
479.5214625537308
 20
400.9164414145279
 10
480.4102971889252
 20
400.9164414145279
 10
480.4102971889252
 20
400.9164414145279
 10
480.4102971889252
 20
400.9164414145279
 10
480.4102971889252
 20
400.4510090144706
 10
480.4102971889252
 20
400.4510090144706
 10
480.4102971889252
 20
400.4510090144706
 10
479.5214625537308
 20
400.4510090144706
 10
479.5214625537308
 20
400.4510090144706
 10
479.5214625537308
 20
400.4510090144706
 10
479.5214625537308
 20
397.8851018970565
 10
479.5214625537308
 20
397.8851018970565
 10
479.5214625537308
 20
397.4958061072233
 10
479.6992294807696
 20
397.2756645057158
 10
480.0885252706029
 20
397.2756645057158
 10
480.0885252706029
 20
397.2756645057158
 10
480.4102971889252
 20
397.2756645057158
 10
480.4102971889252
 20
397.2756645057158
 10
480.4102971889252
 20
397.2756645057158
 10
480.4102971889252
 20
396.7506319537637
 10
480.4102971889252
 20
396.7506319537637
 10
480.4102971889252
 20
396.7506319537637
 10
479.9786267246234
 20
396.7506319537637
 10
479.9786267246234
 20
396.7506319537637
 10
479.2672145069193
 20
396.7506319537637
 10
478.9116806528415
 20
397.250170799125
 10
478.9116806528415
 20
397.8682209291788
 10
478.9116806528415
 20
397.8682209291788
 10
478.9116806528415
 20
400.4510090144706
 10
478.9116806528415
 20
400.4510090144706
 10
478.9116806528415
 20
400.4510090144706
 10
478.3866481008895
 20
400.4510090144706
 10
478.3866481008895
 20
400.4510090144706
 10
478.3866481008895
 20
400.4510090144706
 10
478.3866481008895
 20
400.9164414145279
 10
478.3866481008895
 20
400.9164414145279
 10
478.3866481008895
 20
400.9164414145279
 10
478.9116806528415
 20
400.9164414145279
 10
478.9116806528415
 20
400.9164414145279
 10
478.9116806528415
 20
400.9164414145279
 10
478.9116806528415
 20
402.1952608586526
 10
478.9116806528415
 20
402.1952608586526
 10
478.9116806528415
 20
402.1952608586526
 10
479.5214625537308
 20
402.1952608586526
 10
479.5214625537308
 20
402.1952608586526
 10
479.5214625537308
 20
402.1952608586526
 10
479.5214625537308
 20
400.9164414145279
 10
479.5214625537308
 20
400.9164414145279
 97
        0
 75
     2
 76
     1
 98
        0
  0
SPLINE
  5
318
330
2C0
100
AcDbEntity
  8
Layer 1
370
     0
100
AcDbSpline
210
0.0
220
0.0
230
1.0
 70
    11
 71
     3
 72
    35
 73
    31
 74
     0
 42
0.0000000001
 43
0.0000000001
 12
1.0
 22
0.0
 32
0.0
 13
1.0
 23
0.0
 33
0.0
 40
0.0
 40
0.0
 40
0.0
 40
0.0
 40
1.0
 40
1.0
 40
1.0
 40
2.0
 40
2.0
 40
2.0
 40
3.0
 40
3.0
 40
3.0
 40
4.0
 40
4.0
 40
4.0
 40
5.0
 40
5.0
 40
5.0
 40
6.0
 40
6.0
 40
6.0
 40
7.0
 40
7.0
 40
7.0
 40
8.0
 40
8.0
 40
8.0
 40
9.0
 40
9.0
 40
9.0
 40
10.0
 40
10.0
 40
10.0
 40
10.0
 10
484.3979952131019
 20
400.5777885283278
 30
0.0
 10
484.3979952131019
 20
400.5777885283278
 30
0.0
 10
483.9490992713739
 20
400.1206243574351
 30
0.0
 10
483.9490992713739
 20
400.1206243574351
 30
0.0
 10
483.7203449311532
 20
400.3493786976557
 30
0.0
 10
483.5511907428275
 20
400.4255153078798
 30
0.0
 10
483.2294188245052
 20
400.4255153078798
 30
0.0
 10
482.6196369236159
 20
400.4255153078798
 30
0.0
 10
482.2303411337827
 20
399.9428574303963
 30
0.0
 10
482.2303411337827
 20
399.3079263324647
 30
0.0
 10
482.2303411337827
 20
399.3079263324647
 30
0.0
 10
482.2303411337827
 20
396.7506319537637
 30
0.0
 10
482.2303411337827
 20
396.7506319537637
 30
0.0
 10
482.2303411337827
 20
396.7506319537637
 30
0.0
 10
481.6205592328935
 20
396.7506319537637
 30
0.0
 10
481.6205592328935
 20
396.7506319537637
 30
0.0
 10
481.6205592328935
 20
396.7506319537637
 30
0.0
 10
481.6205592328935
 20
400.9164414145279
 30
0.0
 10
481.6205592328935
 20
400.9164414145279
 30
0.0
 10
481.6205592328935
 20
400.9164414145279
 30
0.0
 10
482.2303411337827
 20
400.9164414145279
 30
0.0
 10
482.2303411337827
 20
400.9164414145279
 30
0.0
 10
482.2303411337827
 20
400.9164414145279
 30
0.0
 10
482.2303411337827
 20
400.408634340002
 30
0.0
 10
482.2303411337827
 20
400.408634340002
 30
0.0
 10
482.4587509644548
 20
400.7555554553667
 30
0.0
 10
482.9159151353474
 20
400.9674288277096
 30
0.0
 10
483.3985730128309
 20
400.9674288277096
 30
0.0
 10
483.7968260509258
 20
400.9674288277096
 30
0.0
 10
484.1013724918219
 20
400.8744112496078
 30
0.0
 10
484.3979952131019
 20
400.5777885283278
 30
0.0
  0
HATCH
  5
319
330
2C0
100
AcDbEntity
  8
Layer 1
 62
     7
100
AcDbHatch
 10
0.0
 20
0.0
 30
0.0
210
0.0
220
0.0
230
1.0
  2
SOLID
 70
     1
 71
     0
 91
        1
 92
        1
 93
        1
 72
     4
 94
        3
 73
     0
 74
     1
 95
       35
 96
       31
 40
0.0
 40
0.0
 40
0.0
 40
0.0
 40
1.0
 40
1.0
 40
1.0
 40
2.0
 40
2.0
 40
2.0
 40
3.0
 40
3.0
 40
3.0
 40
4.0
 40
4.0
 40
4.0
 40
5.0
 40
5.0
 40
5.0
 40
6.0
 40
6.0
 40
6.0
 40
7.0
 40
7.0
 40
7.0
 40
8.0
 40
8.0
 40
8.0
 40
9.0
 40
9.0
 40
9.0
 40
10.0
 40
10.0
 40
10.0
 40
10.0
 10
484.3979952131019
 20
400.5777885283278
 10
484.3979952131019
 20
400.5777885283278
 10
483.9490992713739
 20
400.1206243574351
 10
483.9490992713739
 20
400.1206243574351
 10
483.7203449311532
 20
400.3493786976557
 10
483.5511907428275
 20
400.4255153078798
 10
483.2294188245052
 20
400.4255153078798
 10
482.6196369236159
 20
400.4255153078798
 10
482.2303411337827
 20
399.9428574303963
 10
482.2303411337827
 20
399.3079263324647
 10
482.2303411337827
 20
399.3079263324647
 10
482.2303411337827
 20
396.7506319537637
 10
482.2303411337827
 20
396.7506319537637
 10
482.2303411337827
 20
396.7506319537637
 10
481.6205592328935
 20
396.7506319537637
 10
481.6205592328935
 20
396.7506319537637
 10
481.6205592328935
 20
396.7506319537637
 10
481.6205592328935
 20
400.9164414145279
 10
481.6205592328935
 20
400.9164414145279
 10
481.6205592328935
 20
400.9164414145279
 10
482.2303411337827
 20
400.9164414145279
 10
482.2303411337827
 20
400.9164414145279
 10
482.2303411337827
 20
400.9164414145279
 10
482.2303411337827
 20
400.408634340002
 10
482.2303411337827
 20
400.408634340002
 10
482.4587509644548
 20
400.7555554553667
 10
482.9159151353474
 20
400.9674288277096
 10
483.3985730128309
 20
400.9674288277096
 10
483.7968260509258
 20
400.9674288277096
 10
484.1013724918219
 20
400.8744112496078
 10
484.3979952131019
 20
400.5777885283278
 97
        0
 75
     2
 76
     1
 98
        0
  0
SPLINE
  5
31A
330
2C0
100
AcDbEntity
  8
Layer 1
370
     0
100
AcDbSpline
210
0.0
220
0.0
230
1.0
 70
    11
 71
     3
 72
    47
 73
    43
 74
     0
 42
0.0000000001
 43
0.0000000001
 12
1.0
 22
0.0
 32
0.0
 13
1.0
 23
0.0
 33
0.0
 40
0.0
 40
0.0
 40
0.0
 40
0.0
 40
1.0
 40
1.0
 40
1.0
 40
2.0
 40
2.0
 40
2.0
 40
3.0
 40
3.0
 40
3.0
 40
4.0
 40
4.0
 40
4.0
 40
5.0
 40
5.0
 40
5.0
 40
6.0
 40
6.0
 40
6.0
 40
7.0
 40
7.0
 40
7.0
 40
8.0
 40
8.0
 40
8.0
 40
9.0
 40
9.0
 40
9.0
 40
10.0
 40
10.0
 40
10.0
 40
11.0
 40
11.0
 40
11.0
 40
12.0
 40
12.0
 40
12.0
 40
13.0
 40
13.0
 40
13.0
 40
14.0
 40
14.0
 40
14.0
 40
14.0
 10
488.0725340576694
 20
399.5787108376053
 30
0.0
 10
488.0725340576694
 20
399.5787108376053
 30
0.0
 10
488.0725340576694
 20
396.7506319537637
 30
0.0
 10
488.0725340576694
 20
396.7506319537637
 30
0.0
 10
488.0725340576694
 20
396.7506319537637
 30
0.0
 10
487.4627521567801
 20
396.7506319537637
 30
0.0
 10
487.4627521567801
 20
396.7506319537637
 30
0.0
 10
487.4627521567801
 20
396.7506319537637
 30
0.0
 10
487.4627521567801
 20
397.1485404823101
 30
0.0
 10
487.4627521567801
 20
397.1485404823101
 30
0.0
 10
487.1327120092932
 20
396.8185003348232
 30
0.0
 10
486.8192083201355
 20
396.6999890501306
 30
0.0
 10
486.260413832428
 20
396.6999890501306
 30
0.0
 10
485.6847383768427
 20
396.6999890501306
 30
0.0
 10
485.3715791972335
 20
396.8012748573969
 30
0.0
 10
485.0835692146666
 20
397.0810166107992
 30
0.0
 10
484.8716958423238
 20
397.2839327348804
 30
0.0
 10
484.7700655255089
 20
397.5974364240382
 30
0.0
 10
484.7700655255089
 20
397.9274765715251
 30
0.0
 10
484.7700655255089
 20
398.66438249582
 30
0.0
 10
485.2868298482963
 20
399.1298148958773
 30
0.0
 10
486.2180391579594
 20
399.1298148958773
 30
0.0
 10
486.2180391579594
 20
399.1298148958773
 30
0.0
 10
487.4627521567801
 20
399.1298148958773
 30
0.0
 10
487.4627521567801
 20
399.1298148958773
 30
0.0
 10
487.4627521567801
 20
399.1298148958773
 30
0.0
 10
487.4627521567801
 20
399.5280679339722
 30
0.0
 10
487.4627521567801
 20
399.5280679339722
 30
0.0
 10
487.4627521567801
 20
400.1292370961482
 30
0.0
 10
487.1664739450487
 20
400.4423962757575
 30
0.0
 10
486.3958060849983
 20
400.4423962757575
 30
0.0
 10
485.8711180425947
 20
400.4423962757575
 30
0.0
 10
485.5999890279056
 20
400.3070040231872
 30
0.0
 10
485.3460854906427
 20
399.959738398274
 30
0.0
 10
485.3460854906427
 20
399.959738398274
 30
0.0
 10
484.9309514846701
 20
400.3407659589426
 30
0.0
 10
484.9309514846701
 20
400.3407659589426
 30
0.0
 10
485.295098077461
 20
400.8234238364261
 30
0.0
 10
485.7185003125982
 20
400.9674288277096
 30
0.0
 10
486.4044188237114
 20
400.9674288277096
 30
0.0
 10
487.5306205378396
 20
400.9674288277096
 30
0.0
 10
488.0725340576694
 20
400.4761582115129
 30
0.0
 10
488.0725340576694
 20
399.5787108376053
 30
0.0
  0
SPLINE
  5
31B
330
2C0
100
AcDbEntity
  8
Layer 1
370
     0
100
AcDbSpline
210
0.0
220
0.0
230
1.0
 70
    11
 71
     3
 72
    23
 73
    19
 74
     0
 42
0.0000000001
 43
0.0000000001
 12
1.0
 22
0.0
 32
0.0
 13
1.0
 23
0.0
 33
0.0
 40
0.0
 40
0.0
 40
0.0
 40
0.0
 40
1.0
 40
1.0
 40
1.0
 40
2.0
 40
2.0
 40
2.0
 40
3.0
 40
3.0
 40
3.0
 40
4.0
 40
4.0
 40
4.0
 40
5.0
 40
5.0
 40
5.0
 40
6.0
 40
6.0
 40
6.0
 40
6.0
 10
486.3027885068965
 20
398.6726507249846
 30
0.0
 10
485.6761256381296
 20
398.6726507249846
 30
0.0
 10
485.3629664585204
 20
398.4270154168863
 30
0.0
 10
485.3629664585204
 20
397.9360893102382
 30
0.0
 10
485.3629664585204
 20
397.4534314327547
 30
0.0
 10
485.6592446702519
 20
397.2246770925341
 30
0.0
 10
486.3282822134874
 20
397.2246770925341
 30
0.0
 10
486.6755478384006
 20
397.2246770925341
 30
0.0
 10
486.9800942792967
 20
397.2587835378381
 30
0.0
 10
487.2512232939858
 20
397.5040743363879
 30
0.0
 10
487.3952282852693
 20
397.6398110985068
 30
0.0
 10
487.4627521567801
 20
397.8768336678919
 30
0.0
 10
487.4627521567801
 20
398.2240992928051
 30
0.0
 10
487.4627521567801
 20
398.2240992928051
 30
0.0
 10
487.4627521567801
 20
398.6726507249846
 30
0.0
 10
487.4627521567801
 20
398.6726507249846
 30
0.0
 10
487.4627521567801
 20
398.6726507249846
 30
0.0
 10
486.3027885068965
 20
398.6726507249846
 30
0.0
 10
486.3027885068965
 20
398.6726507249846
 30
0.0
  0
HATCH
  5
31C
330
2C0
100
AcDbEntity
  8
Layer 1
 62
     7
100
AcDbHatch
 10
0.0
 20
0.0
 30
0.0
210
0.0
220
0.0
230
1.0
  2
SOLID
 70
     1
 71
     0
 91
        2
 92
        1
 93
        1
 72
     4
 94
        3
 73
     0
 74
     1
 95
       47
 96
       43
 40
0.0
 40
0.0
 40
0.0
 40
0.0
 40
1.0
 40
1.0
 40
1.0
 40
2.0
 40
2.0
 40
2.0
 40
3.0
 40
3.0
 40
3.0
 40
4.0
 40
4.0
 40
4.0
 40
5.0
 40
5.0
 40
5.0
 40
6.0
 40
6.0
 40
6.0
 40
7.0
 40
7.0
 40
7.0
 40
8.0
 40
8.0
 40
8.0
 40
9.0
 40
9.0
 40
9.0
 40
10.0
 40
10.0
 40
10.0
 40
11.0
 40
11.0
 40
11.0
 40
12.0
 40
12.0
 40
12.0
 40
13.0
 40
13.0
 40
13.0
 40
14.0
 40
14.0
 40
14.0
 40
14.0
 10
488.0725340576694
 20
399.5787108376053
 10
488.0725340576694
 20
399.5787108376053
 10
488.0725340576694
 20
396.7506319537637
 10
488.0725340576694
 20
396.7506319537637
 10
488.0725340576694
 20
396.7506319537637
 10
487.4627521567801
 20
396.7506319537637
 10
487.4627521567801
 20
396.7506319537637
 10
487.4627521567801
 20
396.7506319537637
 10
487.4627521567801
 20
397.1485404823101
 10
487.4627521567801
 20
397.1485404823101
 10
487.1327120092932
 20
396.8185003348232
 10
486.8192083201355
 20
396.6999890501306
 10
486.260413832428
 20
396.6999890501306
 10
485.6847383768427
 20
396.6999890501306
 10
485.3715791972335
 20
396.8012748573969
 10
485.0835692146666
 20
397.0810166107992
 10
484.8716958423238
 20
397.2839327348804
 10
484.7700655255089
 20
397.5974364240382
 10
484.7700655255089
 20
397.9274765715251
 10
484.7700655255089
 20
398.66438249582
 10
485.2868298482963
 20
399.1298148958773
 10
486.2180391579594
 20
399.1298148958773
 10
486.2180391579594
 20
399.1298148958773
 10
487.4627521567801
 20
399.1298148958773
 10
487.4627521567801
 20
399.1298148958773
 10
487.4627521567801
 20
399.1298148958773
 10
487.4627521567801
 20
399.5280679339722
 10
487.4627521567801
 20
399.5280679339722
 10
487.4627521567801
 20
400.1292370961482
 10
487.1664739450487
 20
400.4423962757575
 10
486.3958060849983
 20
400.4423962757575
 10
485.8711180425947
 20
400.4423962757575
 10
485.5999890279056
 20
400.3070040231872
 10
485.3460854906427
 20
399.959738398274
 10
485.3460854906427
 20
399.959738398274
 10
484.9309514846701
 20
400.3407659589426
 10
484.9309514846701
 20
400.3407659589426
 10
485.295098077461
 20
400.8234238364261
 10
485.7185003125982
 20
400.9674288277096
 10
486.4044188237114
 20
400.9674288277096
 10
487.5306205378396
 20
400.9674288277096
 10
488.0725340576694
 20
400.4761582115129
 10
488.0725340576694
 20
399.5787108376053
 97
        0
 92
        1
 93
        1
 72
     4
 94
        3
 73
     0
 74
     1
 95
       23
 96
       19
 40
0.0
 40
0.0
 40
0.0
 40
0.0
 40
1.0
 40
1.0
 40
1.0
 40
2.0
 40
2.0
 40
2.0
 40
3.0
 40
3.0
 40
3.0
 40
4.0
 40
4.0
 40
4.0
 40
5.0
 40
5.0
 40
5.0
 40
6.0
 40
6.0
 40
6.0
 40
6.0
 10
486.3027885068965
 20
398.6726507249846
 10
485.6761256381296
 20
398.6726507249846
 10
485.3629664585204
 20
398.4270154168863
 10
485.3629664585204
 20
397.9360893102382
 10
485.3629664585204
 20
397.4534314327547
 10
485.6592446702519
 20
397.2246770925341
 10
486.3282822134874
 20
397.2246770925341
 10
486.6755478384006
 20
397.2246770925341
 10
486.9800942792967
 20
397.2587835378381
 10
487.2512232939858
 20
397.5040743363879
 10
487.3952282852693
 20
397.6398110985068
 10
487.4627521567801
 20
397.8768336678919
 10
487.4627521567801
 20
398.2240992928051
 10
487.4627521567801
 20
398.2240992928051
 10
487.4627521567801
 20
398.6726507249846
 10
487.4627521567801
 20
398.6726507249846
 10
487.4627521567801
 20
398.6726507249846
 10
486.3027885068965
 20
398.6726507249846
 10
486.3027885068965
 20
398.6726507249846
 97
        0
 75
     2
 76
     1
 98
        0
  0
SPLINE
  5
31D
330
2C0
100
AcDbEntity
  8
Layer 1
370
     0
100
AcDbSpline
210
0.0
220
0.0
230
1.0
 70
    11
 71
     3
 72
    38
 73
    34
 74
     0
 42
0.0000000001
 43
0.0000000001
 12
1.0
 22
0.0
 32
0.0
 13
1.0
 23
0.0
 33
0.0
 40
0.0
 40
0.0
 40
0.0
 40
0.0
 40
1.0
 40
1.0
 40
1.0
 40
2.0
 40
2.0
 40
2.0
 40
3.0
 40
3.0
 40
3.0
 40
4.0
 40
4.0
 40
4.0
 40
5.0
 40
5.0
 40
5.0
 40
6.0
 40
6.0
 40
6.0
 40
7.0
 40
7.0
 40
7.0
 40
8.0
 40
8.0
 40
8.0
 40
9.0
 40
9.0
 40
9.0
 40
10.0
 40
10.0
 40
10.0
 40
11.0
 40
11.0
 40
11.0
 40
11.0
 10
492.3565102935776
 20
400.6032822349187
 30
0.0
 10
492.7716442995502
 20
400.1884927384946
 30
0.0
 10
492.8646618776519
 20
399.5025742273813
 30
0.0
 10
492.8646618776519
 20
398.8335366841458
 30
0.0
 10
492.8646618776519
 20
398.1648436504588
 30
0.0
 10
492.7716442995502
 20
397.4871933685102
 30
0.0
 10
492.3565102935776
 20
397.0637911333729
 30
0.0
 10
492.1363686920701
 20
396.8436495318655
 30
0.0
 10
491.7725666088277
 20
396.6999890501306
 30
0.0
 10
491.3405516349774
 20
396.6999890501306
 30
0.0
 10
490.8833874640847
 20
396.6999890501306
 30
0.0
 10
490.5106281325807
 20
396.8098875961101
 30
0.0
 10
490.163707017216
 20
397.2419025699604
 30
0.0
 10
490.163707017216
 20
397.2419025699604
 30
0.0
 10
490.163707017216
 20
394.8878688248892
 30
0.0
 10
490.163707017216
 20
394.8878688248892
 30
0.0
 10
490.163707017216
 20
394.8878688248892
 30
0.0
 10
489.5539251163268
 20
394.8878688248892
 30
0.0
 10
489.5539251163268
 20
394.8878688248892
 30
0.0
 10
489.5539251163268
 20
394.8878688248892
 30
0.0
 10
489.5539251163268
 20
400.9164414145279
 30
0.0
 10
489.5539251163268
 20
400.9164414145279
 30
0.0
 10
489.5539251163268
 20
400.9164414145279
 30
0.0
 10
490.163707017216
 20
400.9164414145279
 30
0.0
 10
490.163707017216
 20
400.9164414145279
 30
0.0
 10
490.163707017216
 20
400.9164414145279
 30
0.0
 10
490.163707017216
 20
400.4255153078798
 30
0.0
 10
490.163707017216
 20
400.4255153078798
 30
0.0
 10
490.5106281325807
 20
400.8571857721815
 30
0.0
 10
490.8747747253716
 20
400.9674288277096
 30
0.0
 10
491.3405516349774
 20
400.9674288277096
 30
0.0
 10
491.7725666088277
 20
400.9674288277096
 30
0.0
 10
492.1363686920701
 20
400.8234238364261
 30
0.0
 10
492.3565102935776
 20
400.6032822349187
 30
0.0
  0
SPLINE
  5
31E
330
2C0
100
AcDbEntity
  8
Layer 1
370
     0
100
AcDbSpline
210
0.0
220
0.0
230
1.0
 70
    11
 71
     3
 72
    17
 73
    13
 74
     0
 42
0.0000000001
 43
0.0000000001
 12
1.0
 22
0.0
 32
0.0
 13
1.0
 23
0.0
 33
0.0
 40
0.0
 40
0.0
 40
0.0
 40
0.0
 40
1.0
 40
1.0
 40
1.0
 40
2.0
 40
2.0
 40
2.0
 40
3.0
 40
3.0
 40
3.0
 40
4.0
 40
4.0
 40
4.0
 40
4.0
 10
490.163707017216
 20
398.8335366841458
 30
0.0
 10
490.163707017216
 20
398.0208386591754
 30
0.0
 10
490.2990992697864
 20
397.2419025699604
 30
0.0
 10
491.2134276115717
 20
397.2419025699604
 30
0.0
 10
492.1194877241924
 20
397.2419025699604
 30
0.0
 10
492.2548799767627
 20
398.0208386591754
 30
0.0
 10
492.2548799767627
 20
398.8335366841458
 30
0.0
 10
492.2548799767627
 20
399.6465792186648
 30
0.0
 10
492.1194877241924
 20
400.4255153078798
 30
0.0
 10
491.2134276115717
 20
400.4255153078798
 30
0.0
 10
490.2990992697864
 20
400.4255153078798
 30
0.0
 10
490.163707017216
 20
399.6465792186648
 30
0.0
 10
490.163707017216
 20
398.8335366841458
 30
0.0
  0
HATCH
  5
31F
330
2C0
100
AcDbEntity
  8
Layer 1
 62
     7
100
AcDbHatch
 10
0.0
 20
0.0
 30
0.0
210
0.0
220
0.0
230
1.0
  2
SOLID
 70
     1
 71
     0
 91
        2
 92
        1
 93
        1
 72
     4
 94
        3
 73
     0
 74
     1
 95
       38
 96
       34
 40
0.0
 40
0.0
 40
0.0
 40
0.0
 40
1.0
 40
1.0
 40
1.0
 40
2.0
 40
2.0
 40
2.0
 40
3.0
 40
3.0
 40
3.0
 40
4.0
 40
4.0
 40
4.0
 40
5.0
 40
5.0
 40
5.0
 40
6.0
 40
6.0
 40
6.0
 40
7.0
 40
7.0
 40
7.0
 40
8.0
 40
8.0
 40
8.0
 40
9.0
 40
9.0
 40
9.0
 40
10.0
 40
10.0
 40
10.0
 40
11.0
 40
11.0
 40
11.0
 40
11.0
 10
492.3565102935776
 20
400.6032822349187
 10
492.7716442995502
 20
400.1884927384946
 10
492.8646618776519
 20
399.5025742273813
 10
492.8646618776519
 20
398.8335366841458
 10
492.8646618776519
 20
398.1648436504588
 10
492.7716442995502
 20
397.4871933685102
 10
492.3565102935776
 20
397.0637911333729
 10
492.1363686920701
 20
396.8436495318655
 10
491.7725666088277
 20
396.6999890501306
 10
491.3405516349774
 20
396.6999890501306
 10
490.8833874640847
 20
396.6999890501306
 10
490.5106281325807
 20
396.8098875961101
 10
490.163707017216
 20
397.2419025699604
 10
490.163707017216
 20
397.2419025699604
 10
490.163707017216
 20
394.8878688248892
 10
490.163707017216
 20
394.8878688248892
 10
490.163707017216
 20
394.8878688248892
 10
489.5539251163268
 20
394.8878688248892
 10
489.5539251163268
 20
394.8878688248892
 10
489.5539251163268
 20
394.8878688248892
 10
489.5539251163268
 20
400.9164414145279
 10
489.5539251163268
 20
400.9164414145279
 10
489.5539251163268
 20
400.9164414145279
 10
490.163707017216
 20
400.9164414145279
 10
490.163707017216
 20
400.9164414145279
 10
490.163707017216
 20
400.9164414145279
 10
490.163707017216
 20
400.4255153078798
 10
490.163707017216
 20
400.4255153078798
 10
490.5106281325807
 20
400.8571857721815
 10
490.8747747253716
 20
400.9674288277096
 10
491.3405516349774
 20
400.9674288277096
 10
491.7725666088277
 20
400.9674288277096
 10
492.1363686920701
 20
400.8234238364261
 10
492.3565102935776
 20
400.6032822349187
 97
        0
 92
        1
 93
        1
 72
     4
 94
        3
 73
     0
 74
     1
 95
       17
 96
       13
 40
0.0
 40
0.0
 40
0.0
 40
0.0
 40
1.0
 40
1.0
 40
1.0
 40
2.0
 40
2.0
 40
2.0
 40
3.0
 40
3.0
 40
3.0
 40
4.0
 40
4.0
 40
4.0
 40
4.0
 10
490.163707017216
 20
398.8335366841458
 10
490.163707017216
 20
398.0208386591754
 10
490.2990992697864
 20
397.2419025699604
 10
491.2134276115717
 20
397.2419025699604
 10
492.1194877241924
 20
397.2419025699604
 10
492.2548799767627
 20
398.0208386591754
 10
492.2548799767627
 20
398.8335366841458
 10
492.2548799767627
 20
399.6465792186648
 10
492.1194877241924
 20
400.4255153078798
 10
491.2134276115717
 20
400.4255153078798
 10
490.2990992697864
 20
400.4255153078798
 10
490.163707017216
 20
399.6465792186648
 10
490.163707017216
 20
398.8335366841458
 97
        0
 75
     2
 76
     1
 98
        0
  0
SPLINE
  5
320
330
2C0
100
AcDbEntity
  8
Layer 1
370
     0
100
AcDbSpline
210
0.0
220
0.0
230
1.0
 70
    11
 71
     3
 72
    53
 73
    49
 74
     0
 42
0.0000000001
 43
0.0000000001
 12
1.0
 22
0.0
 32
0.0
 13
1.0
 23
0.0
 33
0.0
 40
0.0
 40
0.0
 40
0.0
 40
0.0
 40
1.0
 40
1.0
 40
1.0
 40
2.0
 40
2.0
 40
2.0
 40
3.0
 40
3.0
 40
3.0
 40
4.0
 40
4.0
 40
4.0
 40
5.0
 40
5.0
 40
5.0
 40
6.0
 40
6.0
 40
6.0
 40
7.0
 40
7.0
 40
7.0
 40
8.0
 40
8.0
 40
8.0
 40
9.0
 40
9.0
 40
9.0
 40
10.0
 40
10.0
 40
10.0
 40
11.0
 40
11.0
 40
11.0
 40
12.0
 40
12.0
 40
12.0
 40
13.0
 40
13.0
 40
13.0
 40
14.0
 40
14.0
 40
14.0
 40
15.0
 40
15.0
 40
15.0
 40
16.0
 40
16.0
 40
16.0
 40
16.0
 10
496.9880966639474
 20
400.5185328859815
 30
0.0
 10
496.9880966639474
 20
400.5185328859815
 30
0.0
 10
496.5898436258526
 20
400.1206243574351
 30
0.0
 10
496.5898436258526
 20
400.1206243574351
 30
0.0
 10
496.2935654141211
 20
400.3493786976557
 30
0.0
 10
495.9125378534524
 20
400.4510090144706
 30
0.0
 10
495.4808673891507
 20
400.4510090144706
 30
0.0
 10
494.8710854882614
 20
400.4510090144706
 30
0.0
 10
494.5493135699391
 20
400.1967609676591
 30
0.0
 10
494.5493135699391
 20
399.7650905033574
 30
0.0
 10
494.5493135699391
 20
399.3923311718533
 30
0.0
 10
494.7780679101597
 20
399.2062960156499
 30
0.0
 10
495.2944877233986
 20
399.1553086024682
 30
0.0
 10
495.2944877233986
 20
399.1553086024682
 30
0.0
 10
495.9462997892079
 20
399.0960529601218
 30
0.0
 10
495.9462997892079
 20
399.0960529601218
 30
0.0
 10
496.6745929747897
 20
399.0285290886109
 30
0.0
 10
497.1741318201509
 20
398.7574000739218
 30
0.0
 10
497.1741318201509
 20
397.9698512459937
 30
0.0
 10
497.1741318201509
 20
397.1654214501878
 30
0.0
 10
496.4968260477508
 20
396.6999890501306
 30
0.0
 10
495.4808673891507
 20
396.6999890501306
 30
0.0
 10
494.7694551714466
 20
396.6999890501306
 30
0.0
 10
494.2192734224521
 20
396.8608750092918
 30
0.0
 10
493.7703774807241
 20
397.3011582123067
 30
0.0
 10
493.7703774807241
 20
397.3011582123067
 30
0.0
 10
494.1768987479836
 20
397.7073349700177
 30
0.0
 10
494.1768987479836
 20
397.7073349700177
 30
0.0
 10
494.4986706663059
 20
397.3686820838176
 30
0.0
 10
494.9558348371986
 20
397.2246770925341
 30
0.0
 10
495.4722546504375
 20
397.2246770925341
 30
0.0
 10
496.1664413907154
 20
397.2246770925341
 30
0.0
 10
496.581575396688
 20
397.4703124006325
 30
0.0
 10
496.581575396688
 20
397.9615830168291
 30
0.0
 10
496.581575396688
 20
398.3339978387846
 30
0.0
 10
496.3783147630582
 20
398.5286457337012
 30
0.0
 10
495.8870441468616
 20
398.5710204081698
 30
0.0
 10
495.8870441468616
 20
398.5710204081698
 30
0.0
 10
495.2014701452969
 20
398.630276050516
 30
0.0
 10
495.2014701452969
 20
398.630276050516
 30
0.0
 10
494.3884276107779
 20
398.6981444315755
 30
0.0
 10
493.9567571464761
 20
399.0536782856533
 30
0.0
 10
493.9567571464761
 20
399.7482095354796
 30
0.0
 10
493.9567571464761
 20
400.5102646568169
 30
0.0
 10
494.5916882444076
 20
400.9674288277096
 30
0.0
 10
495.4891356183152
 20
400.9674288277096
 30
0.0
 10
496.0903047804914
 20
400.9674288277096
 30
0.0
 10
496.6070691032788
 20
400.8234238364261
 30
0.0
 10
496.9880966639474
 20
400.5185328859815
 30
0.0
  0
HATCH
  5
321
330
2C0
100
AcDbEntity
  8
Layer 1
 62
     7
100
AcDbHatch
 10
0.0
 20
0.0
 30
0.0
210
0.0
220
0.0
230
1.0
  2
SOLID
 70
     1
 71
     0
 91
        1
 92
        1
 93
        1
 72
     4
 94
        3
 73
     0
 74
     1
 95
       53
 96
       49
 40
0.0
 40
0.0
 40
0.0
 40
0.0
 40
1.0
 40
1.0
 40
1.0
 40
2.0
 40
2.0
 40
2.0
 40
3.0
 40
3.0
 40
3.0
 40
4.0
 40
4.0
 40
4.0
 40
5.0
 40
5.0
 40
5.0
 40
6.0
 40
6.0
 40
6.0
 40
7.0
 40
7.0
 40
7.0
 40
8.0
 40
8.0
 40
8.0
 40
9.0
 40
9.0
 40
9.0
 40
10.0
 40
10.0
 40
10.0
 40
11.0
 40
11.0
 40
11.0
 40
12.0
 40
12.0
 40
12.0
 40
13.0
 40
13.0
 40
13.0
 40
14.0
 40
14.0
 40
14.0
 40
15.0
 40
15.0
 40
15.0
 40
16.0
 40
16.0
 40
16.0
 40
16.0
 10
496.9880966639474
 20
400.5185328859815
 10
496.9880966639474
 20
400.5185328859815
 10
496.5898436258526
 20
400.1206243574351
 10
496.5898436258526
 20
400.1206243574351
 10
496.2935654141211
 20
400.3493786976557
 10
495.9125378534524
 20
400.4510090144706
 10
495.4808673891507
 20
400.4510090144706
 10
494.8710854882614
 20
400.4510090144706
 10
494.5493135699391
 20
400.1967609676591
 10
494.5493135699391
 20
399.7650905033574
 10
494.5493135699391
 20
399.3923311718533
 10
494.7780679101597
 20
399.2062960156499
 10
495.2944877233986
 20
399.1553086024682
 10
495.2944877233986
 20
399.1553086024682
 10
495.9462997892079
 20
399.0960529601218
 10
495.9462997892079
 20
399.0960529601218
 10
496.6745929747897
 20
399.0285290886109
 10
497.1741318201509
 20
398.7574000739218
 10
497.1741318201509
 20
397.9698512459937
 10
497.1741318201509
 20
397.1654214501878
 10
496.4968260477508
 20
396.6999890501306
 10
495.4808673891507
 20
396.6999890501306
 10
494.7694551714466
 20
396.6999890501306
 10
494.2192734224521
 20
396.8608750092918
 10
493.7703774807241
 20
397.3011582123067
 10
493.7703774807241
 20
397.3011582123067
 10
494.1768987479836
 20
397.7073349700177
 10
494.1768987479836
 20
397.7073349700177
 10
494.4986706663059
 20
397.3686820838176
 10
494.9558348371986
 20
397.2246770925341
 10
495.4722546504375
 20
397.2246770925341
 10
496.1664413907154
 20
397.2246770925341
 10
496.581575396688
 20
397.4703124006325
 10
496.581575396688
 20
397.9615830168291
 10
496.581575396688
 20
398.3339978387846
 10
496.3783147630582
 20
398.5286457337012
 10
495.8870441468616
 20
398.5710204081698
 10
495.8870441468616
 20
398.5710204081698
 10
495.2014701452969
 20
398.630276050516
 10
495.2014701452969
 20
398.630276050516
 10
494.3884276107779
 20
398.6981444315755
 10
493.9567571464761
 20
399.0536782856533
 10
493.9567571464761
 20
399.7482095354796
 10
493.9567571464761
 20
400.5102646568169
 10
494.5916882444076
 20
400.9674288277096
 10
495.4891356183152
 20
400.9674288277096
 10
496.0903047804914
 20
400.9674288277096
 10
496.6070691032788
 20
400.8234238364261
 10
496.9880966639474
 20
400.5185328859815
 97
        0
 75
     2
 76
     1
 98
        0
  0
ENDBLK
  5
2C3
330
2C0
100
AcDbEntity
  8
0
100
AcDbBlockEnd
  0
ENDSEC
  0
SECTION
  2
ENTITIES
  0
INSERT
  5
42
330
1F
100
AcDbEntity
  8
Layer 1
100
AcDbBlockReference
  2
block 2
 10
0.0
 20
0.0
 30
0.0
  0
INSERT
  5
84
330
1F
100
AcDbEntity
  8
Layer 1
100
AcDbBlockReference
  2
block 3
 10
0.0
 20
0.0
 30
0.0
  0
INSERT
  5
C3
330
1F
100
AcDbEntity
  8
Layer 1
100
AcDbBlockReference
  2
block 4
 10
0.0
 20
0.0
 30
0.0
  0
INSERT
  5
EC
330
1F
100
AcDbEntity
  8
Layer 1
100
AcDbBlockReference
  2
block 5
 10
0.0
 20
0.0
 30
0.0
  0
POLYLINE
  5
F9
330
1F
100
AcDbEntity
  8
Layer 1
 62
    40
370
    13
100
AcDb2dPolyline
 66
     1
 10
0.0
 20
0.0
 30
0.0
  0
VERTEX
  5
FA
330
F9
100
AcDbEntity
  8
Layer 1
 62
    40
370
    13
100
AcDbVertex
100
AcDb2dVertex
 10
18.85469202933369
 20
647.693546834254
 30
0.0
  0
VERTEX
  5
FB
330
F9
100
AcDbEntity
  8
Layer 1
 62
    40
370
    13
100
AcDbVertex
100
AcDb2dVertex
 10
93.85452840245657
 20
647.693546834254
 30
0.0
  0
SEQEND
  5
FC
330
F9
100
AcDbEntity
  8
Layer 1
 62
    40
370
    13
  0
POLYLINE
  5
FD
330
1F
100
AcDbEntity
  8
Layer 1
 62
    40
370
    13
100
AcDb2dPolyline
 66
     1
 10
0.0
 20
0.0
 30
0.0
  0
VERTEX
  5
FE
330
FD
100
AcDbEntity
  8
Layer 1
 62
    40
370
    13
100
AcDbVertex
100
AcDb2dVertex
 10
93.85467912538404
 20
647.693546834254
 30
0.0
  0
VERTEX
  5
FF
330
FD
100
AcDbEntity
  8
Layer 1
 62
    40
370
    13
100
AcDbVertex
100
AcDb2dVertex
 10
18.85482122041438
 20
647.693546834254
 30
0.0
  0
SEQEND
  5
100
330
FD
100
AcDbEntity
  8
Layer 1
 62
    40
370
    13
  0
INSERT
  5
102
330
1F
100
AcDbEntity
  8
Layer 1
100
AcDbBlockReference
  2
block 6
 10
0.0
 20
0.0
 30
0.0
  0
POLYLINE
  5
1A4
330
1F
100
AcDbEntity
  8
Layer 1
 62
    40
370
    13
100
AcDb2dPolyline
 66
     1
 10
0.0
 20
0.0
 30
0.0
  0
VERTEX
  5
1A5
330
1A4
100
AcDbEntity
  8
Layer 1
 62
    40
370
    13
100
AcDbVertex
100
AcDb2dVertex
 10
93.85452840245657
 20
647.6936329616411
 30
0.0
  0
VERTEX
  5
1A6
330
1A4
100
AcDbEntity
  8
Layer 1
 62
    40
370
    13
100
AcDbVertex
100
AcDb2dVertex
 10
93.85452840245657
 20
652.6935861667714
 30
0.0
  0
VERTEX
  5
1A7
330
1A4
100
AcDbEntity
  8
Layer 1
 62
    40
370
    13
100
AcDbVertex
100
AcDb2dVertex
 10
18.85469202933369
 20
652.6935861667714
 30
0.0
  0
VERTEX
  5
1A8
330
1A4
100
AcDbEntity
  8
Layer 1
 62
    40
370
    13
100
AcDbVertex
100
AcDb2dVertex
 10
18.85469202933369
 20
647.6936329616411
 30
0.0
  0
VERTEX
  5
1A9
330
1A4
100
AcDbEntity
  8
Layer 1
 62
    40
370
    13
100
AcDbVertex
100
AcDb2dVertex
 10
93.85452840245657
 20
647.6936329616411
 30
0.0
  0
SEQEND
  5
1AA
330
1A4
100
AcDbEntity
  8
Layer 1
 62
    40
370
    13
  0
POLYLINE
  5
1AB
330
1F
100
AcDbEntity
  8
Layer 1
 62
    40
370
    13
100
AcDb2dPolyline
 66
     1
 10
0.0
 20
0.0
 30
0.0
  0
VERTEX
  5
1AC
330
1AB
100
AcDbEntity
  8
Layer 1
 62
    40
370
    13
100
AcDbVertex
100
AcDb2dVertex
 10
179.9431366776467
 20
279.1769150158475
 30
0.0
  0
VERTEX
  5
1AD
330
1AB
100
AcDbEntity
  8
Layer 1
 62
    40
370
    13
100
AcDbVertex
100
AcDb2dVertex
 10
179.9431366776467
 20
594.1767876109795
 30
0.0
  0
VERTEX
  5
1AE
330
1AB
100
AcDbEntity
  8
Layer 1
 62
    40
370
    13
100
AcDbVertex
100
AcDb2dVertex
 10
184.9430898827769
 20
594.1767876109795
 30
0.0
  0
VERTEX
  5
1AF
330
1AB
100
AcDbEntity
  8
Layer 1
 62
    40
370
    13
100
AcDbVertex
100
AcDb2dVertex
 10
184.9430898827769
 20
279.1769150158475
 30
0.0
  0
VERTEX
  5
1B0
330
1AB
100
AcDbEntity
  8
Layer 1
 62
    40
370
    13
100
AcDbVertex
100
AcDb2dVertex
 10
179.9431366776467
 20
279.1769150158475
 30
0.0
  0
SEQEND
  5
1B1
330
1AB
100
AcDbEntity
  8
Layer 1
 62
    40
370
    13
  0
INSERT
  5
1B3
330
1F
100
AcDbEntity
  8
Layer 1
100
AcDbBlockReference
  2
block 7
 10
0.0
 20
0.0
 30
0.0
  0
INSERT
  5
2AF
330
1F
100
AcDbEntity
  8
Layer 1
100
AcDbBlockReference
  2
block 8
 10
0.0
 20
0.0
 30
0.0
  0
ENDSEC
  0
SECTION
  2
OBJECTS
  0
DICTIONARY
  5
C
330
0
100
AcDbDictionary
281
     1
  3
ACAD_GROUP
350
D
  3
ACAD_LAYOUT
350
1A
  3
ACAD_MATERIAL
350
3B
  3
ACAD_MLEADERSTYLE
350
324
  3
ACAD_MLINESTYLE
350
17
  3
ACAD_PLOTSETTINGS
350
19
  3
ACAD_PLOTSTYLENAME
350
E
  3
ACAD_VISUALSTYLE
350
2A
  3
AcDbVariableDictionary
350
322
  0
DICTIONARY
  5
D
102
{ACAD_REACTORS
330
C
102
}
330
C
100
AcDbDictionary
281
     1
  0
DICTIONARY
  5
1A
102
{ACAD_REACTORS
330
C
102
}
330
C
100
AcDbDictionary
281
     1
  3
Layout1
350
1E
  3
Layout2
350
26
  3
Model
350
22
  0
DICTIONARY
  5
3B
102
{ACAD_REACTORS
330
C
102
}
330
C
100
AcDbDictionary
281
     1
  3
ByBlock
350
3D
  3
ByLayer
350
3C
  3
Global
350
3E
  0
DICTIONARY
  5
324
102
{ACAD_REACTORS
330
C
102
}
330
C
100
AcDbDictionary
281
     1
  0
DICTIONARY
  5
17
102
{ACAD_REACTORS
330
C
102
}
330
C
100
AcDbDictionary
281
     1
  3
Standard
350
18
  0
DICTIONARY
  5
19
102
{ACAD_REACTORS
330
C
102
}
330
C
100
AcDbDictionary
281
     1
  0
ACDBDICTIONARYWDFLT
  5
E
102
{ACAD_REACTORS
330
C
102
}
330
C
100
AcDbDictionary
281
     1
  3
Normal
350
F
100
AcDbDictionaryWithDefault
340
F
  0
DICTIONARY
  5
2A
102
{ACAD_REACTORS
330
C
102
}
330
C
100
AcDbDictionary
281
     1
  3
2dWireframe
350
2F
  3
3D Hidden
350
31
  3
3dWireframe
350
30
  3
Basic
350
32
  3
Brighten
350
36
  3
ColorChange
350
3A
  3
Conceptual
350
34
  3
Dim
350
35
  3
Facepattern
350
39
  3
Flat
350
2B
  3
FlatWithEdges
350
2C
  3
Gouraud
350
2D
  3
GouraudWithEdges
350
2E
  3
Linepattern
350
38
  3
Realistic
350
33
  3
Thicken
350
37
  0
DICTIONARY
  5
322
102
{ACAD_REACTORS
330
C
102
}
330
C
100
AcDbDictionary
281
     1
  3
DIMASSOC
350
325
  3
HIDETEXT
350
326
  0
LAYOUT
  5
1E
102
{ACAD_REACTORS
330
1A
102
}
330
1A
100
AcDbPlotSettings
  1

  2
none_device
  4

  6

 40
0.0
 41
0.0
 42
0.0
 43
0.0
 44
0.0
 45
0.0
 46
0.0
 47
0.0
 48
0.0
 49
0.0
140
0.0
141
0.0
142
1.0
143
1.0
 70
   688
 72
     0
 73
     0
 74
     5
  7

 75
    16
147
1.0
148
0.0
149
0.0
100
AcDbLayout
  1
Layout1
 70
     1
 71
     1
 10
0.0
 20
0.0
 11
12.0
 21
9.0
 12
0.0
 22
0.0
 32
0.0
 14
1.000000000000000E+20
 24
1.000000000000000E+20
 34
1.000000000000000E+20
 15
-1.000000000000000E+20
 25
-1.000000000000000E+20
 35
-1.000000000000000E+20
146
0.0
 13
0.0
 23
0.0
 33
0.0
 16
1.0
 26
0.0
 36
0.0
 17
0.0
 27
1.0
 37
0.0
 76
     0
330
1B
  0
LAYOUT
  5
26
102
{ACAD_REACTORS
330
1A
102
}
330
1A
100
AcDbPlotSettings
  1

  2
none_device
  4

  6

 40
0.0
 41
0.0
 42
0.0
 43
0.0
 44
0.0
 45
0.0
 46
0.0
 47
0.0
 48
0.0
 49
0.0
140
0.0
141
0.0
142
1.0
143
1.0
 70
   688
 72
     0
 73
     0
 74
     5
  7

 75
    16
147
1.0
148
0.0
149
0.0
100
AcDbLayout
  1
Layout2
 70
     1
 71
     2
 10
0.0
 20
0.0
 11
0.0
 21
0.0
 12
0.0
 22
0.0
 32
0.0
 14
0.0
 24
0.0
 34
0.0
 15
0.0
 25
0.0
 35
0.0
146
0.0
 13
0.0
 23
0.0
 33
0.0
 16
1.0
 26
0.0
 36
0.0
 17
0.0
 27
1.0
 37
0.0
 76
     0
330
23
  0
LAYOUT
  5
22
102
{ACAD_REACTORS
330
1A
102
}
330
1A
100
AcDbPlotSettings
  1

  2
none_device
  4

  6

 40
0.0
 41
0.0
 42
0.0
 43
0.0
 44
0.0
 45
0.0
 46
0.0
 47
0.0
 48
0.0
 49
0.0
140
0.0
141
0.0
142
1.0
143
1.0
 70
  1712
 72
     0
 73
     0
 74
     0
  7

 75
     0
147
1.0
148
0.0
149
0.0
100
AcDbLayout
  1
Model
 70
     1
 71
     0
 10
0.0
 20
0.0
 11
12.0
 21
9.0
 12
0.0
 22
0.0
 32
0.0
 14
1.000000000000000E+20
 24
1.000000000000000E+20
 34
1.000000000000000E+20
 15
-1.000000000000000E+20
 25
-1.000000000000000E+20
 35
-1.000000000000000E+20
146
0.0
 13
0.0
 23
0.0
 33
0.0
 16
1.0
 26
0.0
 36
0.0
 17
0.0
 27
1.0
 37
0.0
 76
     0
330
1F
331
29
  0
MATERIAL
  5
3D
102
{ACAD_REACTORS
330
3B
102
}
102
{ACAD_XDICTIONARY
360
349
102
}
330
3B
100
AcDbMaterial
  1
ByBlock
  0
MATERIAL
  5
3C
102
{ACAD_REACTORS
330
3B
102
}
102
{ACAD_XDICTIONARY
360
347
102
}
330
3B
100
AcDbMaterial
  1
ByLayer
  0
MATERIAL
  5
3E
102
{ACAD_REACTORS
330
3B
102
}
102
{ACAD_XDICTIONARY
360
34B
102
}
330
3B
100
AcDbMaterial
  1
Global
  0
MLINESTYLE
  5
18
102
{ACAD_REACTORS
330
17
102
}
330
17
100
AcDbMlineStyle
  2
Standard
 70
     0
  3

 62
   256
 51
90.0
 52
90.0
 71
     2
 49
0.5
 62
   256
  6
BYLAYER
 49
-0.5
 62
   256
  6
BYLAYER
  0
ACDBPLACEHOLDER
  5
F
102
{ACAD_REACTORS
330
E
102
}
330
E
  0
VISUALSTYLE
  5
2F
102
{ACAD_REACTORS
330
2A
102
}
102
{ACAD_XDICTIONARY
360
32F
102
}
330
2A
100
AcDbVisualStyle
  2
2dWireframe
 70
     4
 71
     0
 72
     2
 73
     0
 90
        0
 40
-0.6
 41
-30.0
 62
     5
 63
     7
 74
     1
 91
        4
 64
     7
 65
   257
 75
     1
175
     1
 42
1.0
 92
        0
 66
   257
 43
1.0
 76
     1
 77
     6
 78
     2
 67
     7
 79
     5
170
     0
171
     0
290
     0
174
     0
 93
        1
 44
0.0
173
     0
291
     0
 45
0.0
1001
ACAD
1000
AcDbSavedByObjectVersion
1070
     0
  0
VISUALSTYLE
  5
31
102
{ACAD_REACTORS
330
2A
102
}
102
{ACAD_XDICTIONARY
360
333
102
}
330
2A
100
AcDbVisualStyle
  2
3D Hidden
 70
     6
 71
     1
 72
     2
 73
     2
 90
        0
 40
-0.6
 41
-30.0
 62
     5
 63
     7
 74
     2
 91
        2
 64
     7
 65
   257
 75
     2
175
     1
 42
40.0
 92
        0
 66
   257
 43
1.0
 76
     1
 77
     6
 78
     2
 67
     7
 79
     3
170
     0
171
     0
290
     0
174
     0
 93
        1
 44
0.0
173
     0
291
     0
 45
0.0
1001
ACAD
1000
AcDbSavedByObjectVersion
1070
     0
  0
VISUALSTYLE
  5
30
102
{ACAD_REACTORS
330
2A
102
}
102
{ACAD_XDICTIONARY
360
331
102
}
330
2A
100
AcDbVisualStyle
  2
3dWireframe
 70
     5
 71
     0
 72
     2
 73
     0
 90
        0
 40
-0.6
 41
-30.0
 62
     5
 63
     7
 74
     1
 91
        4
 64
     7
 65
   257
 75
     1
175
     1
 42
1.0
 92
        0
 66
   257
 43
1.0
 76
     1
 77
     6
 78
     2
 67
     7
 79
     5
170
     0
171
     0
290
     0
174
     0
 93
        1
 44
0.0
173
     0
291
     0
 45
0.0
1001
ACAD
1000
AcDbSavedByObjectVersion
1070
     0
  0
VISUALSTYLE
  5
32
102
{ACAD_REACTORS
330
2A
102
}
102
{ACAD_XDICTIONARY
360
335
102
}
330
2A
100
AcDbVisualStyle
  2
Basic
 70
     7
 71
     1
 72
     0
 73
     1
 90
        0
 40
-0.6
 41
-30.0
 62
     5
 63
     7
 74
     0
 91
        4
 64
     7
 65
   257
 75
     1
175
     1
 42
1.0
 92
        8
 66
     7
 43
1.0
 76
     1
 77
     6
 78
     2
 67
     7
 79
     5
170
     0
171
     0
290
     0
174
     0
 93
        1
 44
0.0
173
     0
291
     1
 45
0.0
1001
ACAD
1000
AcDbSavedByObjectVersion
1070
     0
  0
VISUALSTYLE
  5
36
102
{ACAD_REACTORS
330
2A
102
}
102
{ACAD_XDICTIONARY
360
33D
102
}
330
2A
100
AcDbVisualStyle
  2
Brighten
 70
    12
 71
     2
 72
     2
 73
     0
 90
        0
 40
-0.6
 41
-30.0
 62
     5
 63
     7
 74
     1
 91
        4
 64
     7
 65
   257
 75
     1
175
     1
 42
1.0
 92
        8
 66
     7
 43
1.0
 76
     1
 77
     6
 78
     2
 67
     7
 79
     5
170
     0
171
     0
290
     0
174
     0
 93
        1
 44
50.0
173
     0
291
     1
 45
0.0
1001
ACAD
1000
AcDbSavedByObjectVersion
1070
     0
  0
VISUALSTYLE
  5
3A
102
{ACAD_REACTORS
330
2A
102
}
102
{ACAD_XDICTIONARY
360
345
102
}
330
2A
100
AcDbVisualStyle
  2
ColorChange
 70
    16
 71
     2
 72
     2
 73
     3
 90
        0
 40
-0.6
 41
-30.0
 62
     5
 63
     8
 74
     1
 91
        4
 64
     7
 65
   257
 75
     1
175
     1
 42
1.0
 92
        8
 66
     8
 43
1.0
 76
     1
 77
     6
 78
     2
 67
     7
 79
     5
170
     0
171
     0
290
     0
174
     0
 93
        1
 44
0.0
173
     0
291
     1
 45
0.0
1001
ACAD
1000
AcDbSavedByObjectVersion
1070
     0
  0
VISUALSTYLE
  5
34
102
{ACAD_REACTORS
330
2A
102
}
102
{ACAD_XDICTIONARY
360
339
102
}
330
2A
100
AcDbVisualStyle
  2
Conceptual
 70
     9
 71
     3
 72
     2
 73
     0
 90
        0
 40
-0.6
 41
-30.0
 62
     5
 63
     7
 74
     2
 91
        2
 64
     7
 65
   257
 75
     1
175
     1
 42
40.0
 92
        8
 66
     7
 43
1.0
 76
     1
 77
     6
 78
     2
 67
     7
 79
     3
170
     0
171
     0
290
     0
174
     0
 93
        1
 44
0.0
173
     0
291
     0
 45
0.0
1001
ACAD
1000
AcDbSavedByObjectVersion
1070
     0
  0
VISUALSTYLE
  5
35
102
{ACAD_REACTORS
330
2A
102
}
102
{ACAD_XDICTIONARY
360
33B
102
}
330
2A
100
AcDbVisualStyle
  2
Dim
 70
    11
 71
     2
 72
     2
 73
     0
 90
        0
 40
-0.6
 41
-30.0
 62
     5
 63
     7
 74
     1
 91
        4
 64
     7
 65
   257
 75
     1
175
     1
 42
1.0
 92
        8
 66
     7
 43
1.0
 76
     1
 77
     6
 78
     2
 67
     7
 79
     5
170
     0
171
     0
290
     0
174
     0
 93
        1
 44
-50.0
173
     0
291
     1
 45
0.0
1001
ACAD
1000
AcDbSavedByObjectVersion
1070
     0
  0
VISUALSTYLE
  5
39
102
{ACAD_REACTORS
330
2A
102
}
102
{ACAD_XDICTIONARY
360
343
102
}
330
2A
100
AcDbVisualStyle
  2
Facepattern
 70
    15
 71
     2
 72
     2
 73
     0
 90
        0
 40
-0.6
 41
-30.0
 62
     5
 63
     7
 74
     1
 91
        4
 64
     7
 65
   257
 75
     1
175
     1
 42
1.0
 92
        8
 66
     7
 43
1.0
 76
     1
 77
     6
 78
     2
 67
     7
 79
     5
170
     0
171
     0
290
     0
174
     0
 93
        1
 44
0.0
173
     0
291
     1
 45
0.0
1001
ACAD
1000
AcDbSavedByObjectVersion
1070
     0
  0
VISUALSTYLE
  5
2B
102
{ACAD_REACTORS
330
2A
102
}
102
{ACAD_XDICTIONARY
360
327
102
}
330
2A
100
AcDbVisualStyle
  2
Flat
 70
     0
 71
     2
 72
     1
 73
     1
 90
        2
 40
-0.6
 41
30.0
 62
     5
 63
     7
 74
     0
 91
        4
 64
     7
 65
   257
 75
     1
175
     1
 42
1.0
 92
        8
 66
     7
 43
1.0
 76
     1
 77
     6
 78
     2
 67
     7
 79
     5
170
     0
171
     0
290
     0
174
     0
 93
       13
 44
0.0
173
     0
291
     1
 45
0.0
1001
ACAD
1000
AcDbSavedByObjectVersion
1070
     0
  0
VISUALSTYLE
  5
2C
102
{ACAD_REACTORS
330
2A
102
}
102
{ACAD_XDICTIONARY
360
329
102
}
330
2A
100
AcDbVisualStyle
  2
FlatWithEdges
 70
     1
 71
     2
 72
     1
 73
     1
 90
        2
 40
-0.6
 41
30.0
 62
     5
 63
     7
 74
     1
 91
        4
 64
     7
 65
   257
 75
     1
175
     1
 42
1.0
 92
        0
 66
   257
 43
1.0
 76
     1
 77
     6
 78
     2
 67
     7
 79
     5
170
     0
171
     0
290
     0
174
     0
 93
       13
 44
0.0
173
     0
291
     1
 45
0.0
1001
ACAD
1000
AcDbSavedByObjectVersion
1070
     0
  0
VISUALSTYLE
  5
2D
102
{ACAD_REACTORS
330
2A
102
}
102
{ACAD_XDICTIONARY
360
32B
102
}
330
2A
100
AcDbVisualStyle
  2
Gouraud
 70
     2
 71
     2
 72
     2
 73
     1
 90
        2
 40
-0.6
 41
30.0
 62
     5
 63
     7
 74
     0
 91
        4
 64
     7
 65
   257
 75
     1
175
     1
 42
1.0
 92
        0
 66
     7
 43
1.0
 76
     1
 77
     6
 78
     2
 67
     7
 79
     5
170
     0
171
     0
290
     0
174
     0
 93
       13
 44
0.0
173
     0
291
     1
 45
0.0
1001
ACAD
1000
AcDbSavedByObjectVersion
1070
     0
  0
VISUALSTYLE
  5
2E
102
{ACAD_REACTORS
330
2A
102
}
102
{ACAD_XDICTIONARY
360
32D
102
}
330
2A
100
AcDbVisualStyle
  2
GouraudWithEdges
 70
     3
 71
     2
 72
     2
 73
     1
 90
        2
 40
-0.6
 41
30.0
 62
     5
 63
     7
 74
     1
 91
        4
 64
     7
 65
   257
 75
     1
175
     1
 42
1.0
 92
        0
 66
   257
 43
1.0
 76
     1
 77
     6
 78
     2
 67
     7
 79
     5
170
     0
171
     0
290
     0
174
     0
 93
       13
 44
0.0
173
     0
291
     1
 45
0.0
1001
ACAD
1000
AcDbSavedByObjectVersion
1070
     0
  0
VISUALSTYLE
  5
38
102
{ACAD_REACTORS
330
2A
102
}
102
{ACAD_XDICTIONARY
360
341
102
}
330
2A
100
AcDbVisualStyle
  2
Linepattern
 70
    14
 71
     2
 72
     2
 73
     0
 90
        0
 40
-0.6
 41
-30.0
 62
     5
 63
     7
 74
     1
 91
        4
 64
     7
 65
   257
 75
     7
175
     7
 42
1.0
 92
        8
 66
     7
 43
1.0
 76
     1
 77
     6
 78
     2
 67
     7
 79
     5
170
     0
171
     0
290
     0
174
     0
 93
        1
 44
0.0
173
     0
291
     1
 45
0.0
1001
ACAD
1000
AcDbSavedByObjectVersion
1070
     0
  0
VISUALSTYLE
  5
33
102
{ACAD_REACTORS
330
2A
102
}
102
{ACAD_XDICTIONARY
360
337
102
}
330
2A
100
AcDbVisualStyle
  2
Realistic
 70
     8
 71
     2
 72
     2
 73
     0
 90
        0
 40
-0.6
 41
-30.0
 62
     5
 63
     7
 74
     1
 91
        0
 64
     7
 65
   257
 75
     1
175
     1
 42
1.0
 92
        8
 66
     8
 43
1.0
 76
     1
 77
     6
 78
     2
 67
     7
 79
     5
170
     0
171
     0
290
     0
174
     0
 93
       13
 44
0.0
173
     0
291
     0
 45
0.0
1001
ACAD
1000
AcDbSavedByObjectVersion
1070
     0
  0
VISUALSTYLE
  5
37
102
{ACAD_REACTORS
330
2A
102
}
102
{ACAD_XDICTIONARY
360
33F
102
}
330
2A
100
AcDbVisualStyle
  2
Thicken
 70
    13
 71
     2
 72
     2
 73
     0
 90
        0
 40
-0.6
 41
-30.0
 62
     5
 63
     7
 74
     1
 91
        4
 64
     7
 65
   257
 75
     1
175
     1
 42
1.0
 92
       12
 66
     7
 43
1.0
 76
     1
 77
     6
 78
     2
 67
     7
 79
     5
170
     0
171
     0
290
     0
174
     0
 93
        1
 44
0.0
173
     0
291
     1
 45
0.0
1001
ACAD
1000
AcDbSavedByObjectVersion
1070
     0
  0
DICTIONARYVAR
  5
325
102
{ACAD_REACTORS
330
322
102
}
330
322
100
DictionaryVariables
280
     0
  1
2
  0
DICTIONARYVAR
  5
326
102
{ACAD_REACTORS
330
322
102
}
330
322
100
DictionaryVariables
280
     0
  1
1
  0
DICTIONARY
  5
349
330
3D
100
AcDbDictionary
280
     1
281
     1
  3
ACAD_XREC_ROUNDTRIP
360
34A
  0
DICTIONARY
  5
347
330
3C
100
AcDbDictionary
280
     1
281
     1
  3
ACAD_XREC_ROUNDTRIP
360
348
  0
DICTIONARY
  5
34B
330
3E
100
AcDbDictionary
280
     1
281
     1
  3
ACAD_XREC_ROUNDTRIP
360
34C
  0
DICTIONARY
  5
32F
330
2F
100
AcDbDictionary
280
     1
281
     1
  3
ACAD_XREC_ROUNDTRIP
360
330
  0
DICTIONARY
  5
333
330
31
100
AcDbDictionary
280
     1
281
     1
  3
ACAD_XREC_ROUNDTRIP
360
334
  0
DICTIONARY
  5
331
330
30
100
AcDbDictionary
280
     1
281
     1
  3
ACAD_XREC_ROUNDTRIP
360
332
  0
DICTIONARY
  5
335
330
32
100
AcDbDictionary
280
     1
281
     1
  3
ACAD_XREC_ROUNDTRIP
360
336
  0
DICTIONARY
  5
33D
330
36
100
AcDbDictionary
280
     1
281
     1
  3
ACAD_XREC_ROUNDTRIP
360
33E
  0
DICTIONARY
  5
345
330
3A
100
AcDbDictionary
280
     1
281
     1
  3
ACAD_XREC_ROUNDTRIP
360
346
  0
DICTIONARY
  5
339
330
34
100
AcDbDictionary
280
     1
281
     1
  3
ACAD_XREC_ROUNDTRIP
360
33A
  0
DICTIONARY
  5
33B
330
35
100
AcDbDictionary
280
     1
281
     1
  3
ACAD_XREC_ROUNDTRIP
360
33C
  0
DICTIONARY
  5
343
330
39
100
AcDbDictionary
280
     1
281
     1
  3
ACAD_XREC_ROUNDTRIP
360
344
  0
DICTIONARY
  5
327
330
2B
100
AcDbDictionary
280
     1
281
     1
  3
ACAD_XREC_ROUNDTRIP
360
328
  0
DICTIONARY
  5
329
330
2C
100
AcDbDictionary
280
     1
281
     1
  3
ACAD_XREC_ROUNDTRIP
360
32A
  0
DICTIONARY
  5
32B
330
2D
100
AcDbDictionary
280
     1
281
     1
  3
ACAD_XREC_ROUNDTRIP
360
32C
  0
DICTIONARY
  5
32D
330
2E
100
AcDbDictionary
280
     1
281
     1
  3
ACAD_XREC_ROUNDTRIP
360
32E
  0
DICTIONARY
  5
341
330
38
100
AcDbDictionary
280
     1
281
     1
  3
ACAD_XREC_ROUNDTRIP
360
342
  0
DICTIONARY
  5
337
330
33
100
AcDbDictionary
280
     1
281
     1
  3
ACAD_XREC_ROUNDTRIP
360
338
  0
DICTIONARY
  5
33F
330
37
100
AcDbDictionary
280
     1
281
     1
  3
ACAD_XREC_ROUNDTRIP
360
340
  0
XRECORD
  5
34A
102
{ACAD_REACTORS
330
349
102
}
330
349
100
AcDbXrecord
280
     1
102
MATERIAL
148
0.0
149
0.0
149
0.0
 93
        0
 94
      127
282
     0
 72
     1
 77
     1
171
     1
175
     1
179
     1
273
     0
  0
XRECORD
  5
348
102
{ACAD_REACTORS
330
347
102
}
330
347
100
AcDbXrecord
280
     1
102
MATERIAL
148
0.0
149
0.0
149
0.0
 93
        0
 94
      127
282
     0
 72
     1
 77
     1
171
     1
175
     1
179
     1
273
     0
  0
XRECORD
  5
34C
102
{ACAD_REACTORS
330
34B
102
}
330
34B
100
AcDbXrecord
280
     1
102
MATERIAL
148
0.0
149
0.0
149
0.0
 93
        0
 94
      127
282
     0
 72
     1
 77
     1
171
     1
175
     1
179
     1
273
     0
  0
XRECORD
  5
330
102
{ACAD_REACTORS
330
32F
102
}
330
32F
100
AcDbXrecord
280
     1
102
RTVSPropertyOp0
 70
     1
102
RTVSPropertyOp1
 70
     1
102
RTVSPropertyOp2
 70
     1
102
RTVSPropertyOp3
 70
     1
102
RTVSPropertyOp4
 70
     1
102
RTVSPropertyOp5
 70
     1
102
RTVSPropertyOp6
 70
     1
102
RTVSPropertyOp7
 70
     1
102
RTVSPropertyOp8
 70
     1
102
RTVSPropertyOp9
 70
     1
102
RTVSPropertyOp10
 70
     1
102
RTVSPropertyOp11
 70
     1
102
RTVSPropertyOp12
 70
     1
102
RTVSPropertyOp13
 70
     1
102
RTVSPropertyOp14
 70
     1
102
RTVSPropertyOp15
 70
     1
102
RTVSPropertyOp16
 70
     1
102
RTVSPropertyOp17
 70
     1
102
RTVSPropertyOp18
 70
     1
102
RTVSPropertyOp19
 70
     1
102
RTVSPropertyOp20
 70
     1
102
RTVSPropertyOp21
 70
     1
102
RTVSPropertyOp22
 70
     1
102
RTVSPropertyOp23
 70
     1
102
RTVSPropertyOp24
 70
     1
102
RTVSPropertyOp25
 70
     1
102
RTVSPropertyOp26
 70
     1
102
RTVSPropertyOp27
 70
     1
102
RTVSPropertyOp28
 70
     1
102
RTVSPropertyOp29
 70
     1
102
RTVSPropertyOp30
 70
     1
102
RTVSPropertyOp31
 70
     1
102
RTVSPropertyOp32
 70
     1
  0
XRECORD
  5
334
102
{ACAD_REACTORS
330
333
102
}
330
333
100
AcDbXrecord
280
     1
102
RTVSPropertyOp0
 70
     1
102
RTVSPropertyOp1
 70
     1
102
RTVSPropertyOp2
 70
     1
102
RTVSPropertyOp3
 70
     1
102
RTVSPropertyOp4
 70
     1
102
RTVSPropertyOp5
 70
     1
102
RTVSPropertyOp6
 70
     1
102
RTVSPropertyOp7
 70
     1
102
RTVSPropertyOp8
 70
     1
102
RTVSPropertyOp9
 70
     1
102
RTVSPropertyOp10
 70
     1
102
RTVSPropertyOp11
 70
     1
102
RTVSPropertyOp12
 70
     1
102
RTVSPropertyOp13
 70
     1
102
RTVSPropertyOp14
 70
     1
102
RTVSPropertyOp15
 70
     1
102
RTVSPropertyOp16
 70
     1
102
RTVSPropertyOp17
 70
     1
102
RTVSPropertyOp18
 70
     1
102
RTVSPropertyOp19
 70
     1
102
RTVSPropertyOp20
 70
     1
102
RTVSPropertyOp21
 70
     1
102
RTVSPropertyOp22
 70
     1
102
RTVSPropertyOp23
 70
     1
102
RTVSPropertyOp24
 70
     1
102
RTVSPropertyOp25
 70
     1
102
RTVSPropertyOp26
 70
     1
102
RTVSPropertyOp27
 70
     1
102
RTVSPropertyOp28
 70
     1
102
RTVSPropertyOp29
 70
     1
102
RTVSPropertyOp30
 70
     1
102
RTVSPropertyOp31
 70
     1
102
RTVSPropertyOp32
 70
     1
  0
XRECORD
  5
332
102
{ACAD_REACTORS
330
331
102
}
330
331
100
AcDbXrecord
280
     1
102
RTVSPropertyOp0
 70
     1
102
RTVSPropertyOp1
 70
     1
102
RTVSPropertyOp2
 70
     1
102
RTVSPropertyOp3
 70
     1
102
RTVSPropertyOp4
 70
     1
102
RTVSPropertyOp5
 70
     1
102
RTVSPropertyOp6
 70
     1
102
RTVSPropertyOp7
 70
     1
102
RTVSPropertyOp8
 70
     1
102
RTVSPropertyOp9
 70
     1
102
RTVSPropertyOp10
 70
     1
102
RTVSPropertyOp11
 70
     1
102
RTVSPropertyOp12
 70
     1
102
RTVSPropertyOp13
 70
     1
102
RTVSPropertyOp14
 70
     1
102
RTVSPropertyOp15
 70
     1
102
RTVSPropertyOp16
 70
     1
102
RTVSPropertyOp17
 70
     1
102
RTVSPropertyOp18
 70
     1
102
RTVSPropertyOp19
 70
     1
102
RTVSPropertyOp20
 70
     1
102
RTVSPropertyOp21
 70
     1
102
RTVSPropertyOp22
 70
     1
102
RTVSPropertyOp23
 70
     1
102
RTVSPropertyOp24
 70
     1
102
RTVSPropertyOp25
 70
     1
102
RTVSPropertyOp26
 70
     1
102
RTVSPropertyOp27
 70
     1
102
RTVSPropertyOp28
 70
     1
102
RTVSPropertyOp29
 70
     1
102
RTVSPropertyOp30
 70
     1
102
RTVSPropertyOp31
 70
     1
102
RTVSPropertyOp32
 70
     1
  0
XRECORD
  5
336
102
{ACAD_REACTORS
330
335
102
}
330
335
100
AcDbXrecord
280
     1
102
RTVSPropertyOp0
 70
     1
102
RTVSPropertyOp1
 70
     1
102
RTVSPropertyOp2
 70
     1
102
RTVSPropertyOp3
 70
     1
102
RTVSPropertyOp4
 70
     1
102
RTVSPropertyOp5
 70
     1
102
RTVSPropertyOp6
 70
     1
102
RTVSPropertyOp7
 70
     1
102
RTVSPropertyOp8
 70
     1
102
RTVSPropertyOp9
 70
     1
102
RTVSPropertyOp10
 70
     1
102
RTVSPropertyOp11
 70
     1
102
RTVSPropertyOp12
 70
     1
102
RTVSPropertyOp13
 70
     1
102
RTVSPropertyOp14
 70
     1
102
RTVSPropertyOp15
 70
     1
102
RTVSPropertyOp16
 70
     1
102
RTVSPropertyOp17
 70
     1
102
RTVSPropertyOp18
 70
     1
102
RTVSPropertyOp19
 70
     1
102
RTVSPropertyOp20
 70
     1
102
RTVSPropertyOp21
 70
     1
102
RTVSPropertyOp22
 70
     1
102
RTVSPropertyOp23
 70
     1
102
RTVSPropertyOp24
 70
     1
102
RTVSPropertyOp25
 70
     1
102
RTVSPropertyOp26
 70
     1
102
RTVSPropertyOp27
 70
     1
102
RTVSPropertyOp28
 70
     1
102
RTVSPropertyOp29
 70
     1
102
RTVSPropertyOp30
 70
     1
102
RTVSPropertyOp31
 70
     1
102
RTVSPropertyOp32
 70
     1
  0
XRECORD
  5
33E
102
{ACAD_REACTORS
330
33D
102
}
330
33D
100
AcDbXrecord
280
     1
102
RTVSPropertyOp0
 70
     1
102
RTVSPropertyOp1
 70
     1
102
RTVSPropertyOp2
 70
     1
102
RTVSPropertyOp3
 70
     1
102
RTVSPropertyOp4
 70
     1
102
RTVSPropertyOp5
 70
     1
102
RTVSPropertyOp6
 70
     1
102
RTVSPropertyOp7
 70
     1
102
RTVSPropertyOp8
 70
     1
102
RTVSPropertyOp9
 70
     1
102
RTVSPropertyOp10
 70
     1
102
RTVSPropertyOp11
 70
     1
102
RTVSPropertyOp12
 70
     1
102
RTVSPropertyOp13
 70
     1
102
RTVSPropertyOp14
 70
     1
102
RTVSPropertyOp15
 70
     1
102
RTVSPropertyOp16
 70
     1
102
RTVSPropertyOp17
 70
     1
102
RTVSPropertyOp18
 70
     1
102
RTVSPropertyOp19
 70
     1
102
RTVSPropertyOp20
 70
     1
102
RTVSPropertyOp21
 70
     1
102
RTVSPropertyOp22
 70
     1
102
RTVSPropertyOp23
 70
     1
102
RTVSPropertyOp24
 70
     1
102
RTVSPropertyOp25
 70
     1
102
RTVSPropertyOp26
 70
     1
102
RTVSPropertyOp27
 70
     1
102
RTVSPropertyOp28
 70
     1
102
RTVSPropertyOp29
 70
     1
102
RTVSPropertyOp30
 70
     1
102
RTVSPropertyOp31
 70
     1
102
RTVSPropertyOp32
 70
     1
  0
XRECORD
  5
346
102
{ACAD_REACTORS
330
345
102
}
330
345
100
AcDbXrecord
280
     1
102
RTVSPropertyOp0
 70
     1
102
RTVSPropertyOp1
 70
     1
102
RTVSPropertyOp2
 70
     1
102
RTVSPropertyOp3
 70
     1
102
RTVSPropertyOp4
 70
     1
102
RTVSPropertyOp5
 70
     1
102
RTVSPropertyOp6
 70
     1
102
RTVSPropertyOp7
 70
     1
102
RTVSPropertyOp8
 70
     1
102
RTVSPropertyOp9
 70
     1
102
RTVSPropertyOp10
 70
     1
102
RTVSPropertyOp11
 70
     1
102
RTVSPropertyOp12
 70
     1
102
RTVSPropertyOp13
 70
     1
102
RTVSPropertyOp14
 70
     1
102
RTVSPropertyOp15
 70
     1
102
RTVSPropertyOp16
 70
     1
102
RTVSPropertyOp17
 70
     1
102
RTVSPropertyOp18
 70
     1
102
RTVSPropertyOp19
 70
     1
102
RTVSPropertyOp20
 70
     1
102
RTVSPropertyOp21
 70
     1
102
RTVSPropertyOp22
 70
     1
102
RTVSPropertyOp23
 70
     1
102
RTVSPropertyOp24
 70
     1
102
RTVSPropertyOp25
 70
     1
102
RTVSPropertyOp26
 70
     1
102
RTVSPropertyOp27
 70
     1
102
RTVSPropertyOp28
 70
     1
102
RTVSPropertyOp29
 70
     1
102
RTVSPropertyOp30
 70
     1
102
RTVSPropertyOp31
 70
     1
102
RTVSPropertyOp32
 70
     1
  0
XRECORD
  5
33A
102
{ACAD_REACTORS
330
339
102
}
330
339
100
AcDbXrecord
280
     1
102
RTVSPropertyOp0
 70
     1
102
RTVSPropertyOp1
 70
     1
102
RTVSPropertyOp2
 70
     1
102
RTVSPropertyOp3
 70
     1
102
RTVSPropertyOp4
 70
     1
102
RTVSPropertyOp5
 70
     1
102
RTVSPropertyOp6
 70
     1
102
RTVSPropertyOp7
 70
     1
102
RTVSPropertyOp8
 70
     1
102
RTVSPropertyOp9
 70
     1
102
RTVSPropertyOp10
 70
     1
102
RTVSPropertyOp11
 70
     1
102
RTVSPropertyOp12
 70
     1
102
RTVSPropertyOp13
 70
     1
102
RTVSPropertyOp14
 70
     1
102
RTVSPropertyOp15
 70
     1
102
RTVSPropertyOp16
 70
     1
102
RTVSPropertyOp17
 70
     1
102
RTVSPropertyOp18
 70
     1
102
RTVSPropertyOp19
 70
     1
102
RTVSPropertyOp20
 70
     1
102
RTVSPropertyOp21
 70
     1
102
RTVSPropertyOp22
 70
     1
102
RTVSPropertyOp23
 70
     1
102
RTVSPropertyOp24
 70
     1
102
RTVSPropertyOp25
 70
     1
102
RTVSPropertyOp26
 70
     1
102
RTVSPropertyOp27
 70
     1
102
RTVSPropertyOp28
 70
     1
102
RTVSPropertyOp29
 70
     1
102
RTVSPropertyOp30
 70
     1
102
RTVSPropertyOp31
 70
     1
102
RTVSPropertyOp32
 70
     1
  0
XRECORD
  5
33C
102
{ACAD_REACTORS
330
33B
102
}
330
33B
100
AcDbXrecord
280
     1
102
RTVSPropertyOp0
 70
     1
102
RTVSPropertyOp1
 70
     1
102
RTVSPropertyOp2
 70
     1
102
RTVSPropertyOp3
 70
     1
102
RTVSPropertyOp4
 70
     1
102
RTVSPropertyOp5
 70
     1
102
RTVSPropertyOp6
 70
     1
102
RTVSPropertyOp7
 70
     1
102
RTVSPropertyOp8
 70
     1
102
RTVSPropertyOp9
 70
     1
102
RTVSPropertyOp10
 70
     1
102
RTVSPropertyOp11
 70
     1
102
RTVSPropertyOp12
 70
     1
102
RTVSPropertyOp13
 70
     1
102
RTVSPropertyOp14
 70
     1
102
RTVSPropertyOp15
 70
     1
102
RTVSPropertyOp16
 70
     1
102
RTVSPropertyOp17
 70
     1
102
RTVSPropertyOp18
 70
     1
102
RTVSPropertyOp19
 70
     1
102
RTVSPropertyOp20
 70
     1
102
RTVSPropertyOp21
 70
     1
102
RTVSPropertyOp22
 70
     1
102
RTVSPropertyOp23
 70
     1
102
RTVSPropertyOp24
 70
     1
102
RTVSPropertyOp25
 70
     1
102
RTVSPropertyOp26
 70
     1
102
RTVSPropertyOp27
 70
     1
102
RTVSPropertyOp28
 70
     1
102
RTVSPropertyOp29
 70
     1
102
RTVSPropertyOp30
 70
     1
102
RTVSPropertyOp31
 70
     1
102
RTVSPropertyOp32
 70
     1
  0
XRECORD
  5
344
102
{ACAD_REACTORS
330
343
102
}
330
343
100
AcDbXrecord
280
     1
102
RTVSPropertyOp0
 70
     1
102
RTVSPropertyOp1
 70
     1
102
RTVSPropertyOp2
 70
     1
102
RTVSPropertyOp3
 70
     1
102
RTVSPropertyOp4
 70
     1
102
RTVSPropertyOp5
 70
     1
102
RTVSPropertyOp6
 70
     1
102
RTVSPropertyOp7
 70
     1
102
RTVSPropertyOp8
 70
     1
102
RTVSPropertyOp9
 70
     1
102
RTVSPropertyOp10
 70
     1
102
RTVSPropertyOp11
 70
     1
102
RTVSPropertyOp12
 70
     1
102
RTVSPropertyOp13
 70
     1
102
RTVSPropertyOp14
 70
     1
102
RTVSPropertyOp15
 70
     1
102
RTVSPropertyOp16
 70
     1
102
RTVSPropertyOp17
 70
     1
102
RTVSPropertyOp18
 70
     1
102
RTVSPropertyOp19
 70
     1
102
RTVSPropertyOp20
 70
     1
102
RTVSPropertyOp21
 70
     1
102
RTVSPropertyOp22
 70
     1
102
RTVSPropertyOp23
 70
     1
102
RTVSPropertyOp24
 70
     1
102
RTVSPropertyOp25
 70
     1
102
RTVSPropertyOp26
 70
     1
102
RTVSPropertyOp27
 70
     1
102
RTVSPropertyOp28
 70
     1
102
RTVSPropertyOp29
 70
     1
102
RTVSPropertyOp30
 70
     1
102
RTVSPropertyOp31
 70
     1
102
RTVSPropertyOp32
 70
     1
  0
XRECORD
  5
328
102
{ACAD_REACTORS
330
327
102
}
330
327
100
AcDbXrecord
280
     1
102
RTVSPropertyOp0
 70
     1
102
RTVSPropertyOp1
 70
     1
102
RTVSPropertyOp2
 70
     1
102
RTVSPropertyOp3
 70
     1
102
RTVSPropertyOp4
 70
     1
102
RTVSPropertyOp5
 70
     1
102
RTVSPropertyOp6
 70
     1
102
RTVSPropertyOp7
 70
     1
102
RTVSPropertyOp8
 70
     1
102
RTVSPropertyOp9
 70
     1
102
RTVSPropertyOp10
 70
     1
102
RTVSPropertyOp11
 70
     1
102
RTVSPropertyOp12
 70
     1
102
RTVSPropertyOp13
 70
     1
102
RTVSPropertyOp14
 70
     1
102
RTVSPropertyOp15
 70
     1
102
RTVSPropertyOp16
 70
     1
102
RTVSPropertyOp17
 70
     1
102
RTVSPropertyOp18
 70
     1
102
RTVSPropertyOp19
 70
     1
102
RTVSPropertyOp20
 70
     1
102
RTVSPropertyOp21
 70
     1
102
RTVSPropertyOp22
 70
     1
102
RTVSPropertyOp23
 70
     1
102
RTVSPropertyOp24
 70
     1
102
RTVSPropertyOp25
 70
     1
102
RTVSPropertyOp26
 70
     1
102
RTVSPropertyOp27
 70
     1
102
RTVSPropertyOp28
 70
     1
102
RTVSPropertyOp29
 70
     1
102
RTVSPropertyOp30
 70
     1
102
RTVSPropertyOp31
 70
     1
102
RTVSPropertyOp32
 70
     1
  0
XRECORD
  5
32A
102
{ACAD_REACTORS
330
329
102
}
330
329
100
AcDbXrecord
280
     1
102
RTVSPropertyOp0
 70
     1
102
RTVSPropertyOp1
 70
     1
102
RTVSPropertyOp2
 70
     1
102
RTVSPropertyOp3
 70
     1
102
RTVSPropertyOp4
 70
     1
102
RTVSPropertyOp5
 70
     1
102
RTVSPropertyOp6
 70
     1
102
RTVSPropertyOp7
 70
     1
102
RTVSPropertyOp8
 70
     1
102
RTVSPropertyOp9
 70
     1
102
RTVSPropertyOp10
 70
     1
102
RTVSPropertyOp11
 70
     1
102
RTVSPropertyOp12
 70
     1
102
RTVSPropertyOp13
 70
     1
102
RTVSPropertyOp14
 70
     1
102
RTVSPropertyOp15
 70
     1
102
RTVSPropertyOp16
 70
     1
102
RTVSPropertyOp17
 70
     1
102
RTVSPropertyOp18
 70
     1
102
RTVSPropertyOp19
 70
     1
102
RTVSPropertyOp20
 70
     1
102
RTVSPropertyOp21
 70
     1
102
RTVSPropertyOp22
 70
     1
102
RTVSPropertyOp23
 70
     1
102
RTVSPropertyOp24
 70
     1
102
RTVSPropertyOp25
 70
     1
102
RTVSPropertyOp26
 70
     1
102
RTVSPropertyOp27
 70
     1
102
RTVSPropertyOp28
 70
     1
102
RTVSPropertyOp29
 70
     1
102
RTVSPropertyOp30
 70
     1
102
RTVSPropertyOp31
 70
     1
102
RTVSPropertyOp32
 70
     1
  0
XRECORD
  5
32C
102
{ACAD_REACTORS
330
32B
102
}
330
32B
100
AcDbXrecord
280
     1
102
RTVSPropertyOp0
 70
     1
102
RTVSPropertyOp1
 70
     1
102
RTVSPropertyOp2
 70
     1
102
RTVSPropertyOp3
 70
     1
102
RTVSPropertyOp4
 70
     1
102
RTVSPropertyOp5
 70
     1
102
RTVSPropertyOp6
 70
     1
102
RTVSPropertyOp7
 70
     1
102
RTVSPropertyOp8
 70
     1
102
RTVSPropertyOp9
 70
     1
102
RTVSPropertyOp10
 70
     1
102
RTVSPropertyOp11
 70
     1
102
RTVSPropertyOp12
 70
     1
102
RTVSPropertyOp13
 70
     1
102
RTVSPropertyOp14
 70
     1
102
RTVSPropertyOp15
 70
     1
102
RTVSPropertyOp16
 70
     1
102
RTVSPropertyOp17
 70
     1
102
RTVSPropertyOp18
 70
     1
102
RTVSPropertyOp19
 70
     1
102
RTVSPropertyOp20
 70
     1
102
RTVSPropertyOp21
 70
     1
102
RTVSPropertyOp22
 70
     1
102
RTVSPropertyOp23
 70
     1
102
RTVSPropertyOp24
 70
     1
102
RTVSPropertyOp25
 70
     1
102
RTVSPropertyOp26
 70
     1
102
RTVSPropertyOp27
 70
     1
102
RTVSPropertyOp28
 70
     1
102
RTVSPropertyOp29
 70
     1
102
RTVSPropertyOp30
 70
     1
102
RTVSPropertyOp31
 70
     1
102
RTVSPropertyOp32
 70
     1
  0
XRECORD
  5
32E
102
{ACAD_REACTORS
330
32D
102
}
330
32D
100
AcDbXrecord
280
     1
102
RTVSPropertyOp0
 70
     1
102
RTVSPropertyOp1
 70
     1
102
RTVSPropertyOp2
 70
     1
102
RTVSPropertyOp3
 70
     1
102
RTVSPropertyOp4
 70
     1
102
RTVSPropertyOp5
 70
     1
102
RTVSPropertyOp6
 70
     1
102
RTVSPropertyOp7
 70
     1
102
RTVSPropertyOp8
 70
     1
102
RTVSPropertyOp9
 70
     1
102
RTVSPropertyOp10
 70
     1
102
RTVSPropertyOp11
 70
     1
102
RTVSPropertyOp12
 70
     1
102
RTVSPropertyOp13
 70
     1
102
RTVSPropertyOp14
 70
     1
102
RTVSPropertyOp15
 70
     1
102
RTVSPropertyOp16
 70
     1
102
RTVSPropertyOp17
 70
     1
102
RTVSPropertyOp18
 70
     1
102
RTVSPropertyOp19
 70
     1
102
RTVSPropertyOp20
 70
     1
102
RTVSPropertyOp21
 70
     1
102
RTVSPropertyOp22
 70
     1
102
RTVSPropertyOp23
 70
     1
102
RTVSPropertyOp24
 70
     1
102
RTVSPropertyOp25
 70
     1
102
RTVSPropertyOp26
 70
     1
102
RTVSPropertyOp27
 70
     1
102
RTVSPropertyOp28
 70
     1
102
RTVSPropertyOp29
 70
     1
102
RTVSPropertyOp30
 70
     1
102
RTVSPropertyOp31
 70
     1
102
RTVSPropertyOp32
 70
     1
  0
XRECORD
  5
342
102
{ACAD_REACTORS
330
341
102
}
330
341
100
AcDbXrecord
280
     1
102
RTVSPropertyOp0
 70
     1
102
RTVSPropertyOp1
 70
     1
102
RTVSPropertyOp2
 70
     1
102
RTVSPropertyOp3
 70
     1
102
RTVSPropertyOp4
 70
     1
102
RTVSPropertyOp5
 70
     1
102
RTVSPropertyOp6
 70
     1
102
RTVSPropertyOp7
 70
     1
102
RTVSPropertyOp8
 70
     1
102
RTVSPropertyOp9
 70
     1
102
RTVSPropertyOp10
 70
     1
102
RTVSPropertyOp11
 70
     1
102
RTVSPropertyOp12
 70
     1
102
RTVSPropertyOp13
 70
     1
102
RTVSPropertyOp14
 70
     1
102
RTVSPropertyOp15
 70
     1
102
RTVSPropertyOp16
 70
     1
102
RTVSPropertyOp17
 70
     1
102
RTVSPropertyOp18
 70
     1
102
RTVSPropertyOp19
 70
     1
102
RTVSPropertyOp20
 70
     1
102
RTVSPropertyOp21
 70
     1
102
RTVSPropertyOp22
 70
     1
102
RTVSPropertyOp23
 70
     1
102
RTVSPropertyOp24
 70
     1
102
RTVSPropertyOp25
 70
     1
102
RTVSPropertyOp26
 70
     1
102
RTVSPropertyOp27
 70
     1
102
RTVSPropertyOp28
 70
     1
102
RTVSPropertyOp29
 70
     1
102
RTVSPropertyOp30
 70
     1
102
RTVSPropertyOp31
 70
     1
102
RTVSPropertyOp32
 70
     1
  0
XRECORD
  5
338
102
{ACAD_REACTORS
330
337
102
}
330
337
100
AcDbXrecord
280
     1
102
RTVSPropertyOp0
 70
     1
102
RTVSPropertyOp1
 70
     1
102
RTVSPropertyOp2
 70
     1
102
RTVSPropertyOp3
 70
     1
102
RTVSPropertyOp4
 70
     1
102
RTVSPropertyOp5
 70
     1
102
RTVSPropertyOp6
 70
     1
102
RTVSPropertyOp7
 70
     1
102
RTVSPropertyOp8
 70
     1
102
RTVSPropertyOp9
 70
     1
102
RTVSPropertyOp10
 70
     1
102
RTVSPropertyOp11
 70
     1
102
RTVSPropertyOp12
 70
     1
102
RTVSPropertyOp13
 70
     1
102
RTVSPropertyOp14
 70
     1
102
RTVSPropertyOp15
 70
     1
102
RTVSPropertyOp16
 70
     1
102
RTVSPropertyOp17
 70
     1
102
RTVSPropertyOp18
 70
     1
102
RTVSPropertyOp19
 70
     1
102
RTVSPropertyOp20
 70
     1
102
RTVSPropertyOp21
 70
     1
102
RTVSPropertyOp22
 70
     1
102
RTVSPropertyOp23
 70
     1
102
RTVSPropertyOp24
 70
     1
102
RTVSPropertyOp25
 70
     1
102
RTVSPropertyOp26
 70
     1
102
RTVSPropertyOp27
 70
     1
102
RTVSPropertyOp28
 70
     1
102
RTVSPropertyOp29
 70
     1
102
RTVSPropertyOp30
 70
     1
102
RTVSPropertyOp31
 70
     1
102
RTVSPropertyOp32
 70
     1
  0
XRECORD
  5
340
102
{ACAD_REACTORS
330
33F
102
}
330
33F
100
AcDbXrecord
280
     1
102
RTVSPropertyOp0
 70
     1
102
RTVSPropertyOp1
 70
     1
102
RTVSPropertyOp2
 70
     1
102
RTVSPropertyOp3
 70
     1
102
RTVSPropertyOp4
 70
     1
102
RTVSPropertyOp5
 70
     1
102
RTVSPropertyOp6
 70
     1
102
RTVSPropertyOp7
 70
     1
102
RTVSPropertyOp8
 70
     1
102
RTVSPropertyOp9
 70
     1
102
RTVSPropertyOp10
 70
     1
102
RTVSPropertyOp11
 70
     1
102
RTVSPropertyOp12
 70
     1
102
RTVSPropertyOp13
 70
     1
102
RTVSPropertyOp14
 70
     1
102
RTVSPropertyOp15
 70
     1
102
RTVSPropertyOp16
 70
     1
102
RTVSPropertyOp17
 70
     1
102
RTVSPropertyOp18
 70
     1
102
RTVSPropertyOp19
 70
     1
102
RTVSPropertyOp20
 70
     1
102
RTVSPropertyOp21
 70
     1
102
RTVSPropertyOp22
 70
     1
102
RTVSPropertyOp23
 70
     1
102
RTVSPropertyOp24
 70
     1
102
RTVSPropertyOp25
 70
     1
102
RTVSPropertyOp26
 70
     1
102
RTVSPropertyOp27
 70
     1
102
RTVSPropertyOp28
 70
     1
102
RTVSPropertyOp29
 70
     1
102
RTVSPropertyOp30
 70
     1
102
RTVSPropertyOp31
 70
     1
102
RTVSPropertyOp32
 70
     1
  0
ENDSEC
  0
EOF
